Guitar Tabs Explorer
Rammstein bass tabs for Haifisch

Haifisch bass tab


4 / 5 [1 vote]

Haifisch bass tab by Rammstein

Bass tabs

Print

bass starts at 00:07

Main Riff
G|---------|---------|---------|---------|
D|---------|---------|---------|---------|
A|---------|---------|-2-2-2-2-|-0-0-0-0-|
E|-0-0-0-0-|-0-0-0-0-|---------|---------|

this riff is played the whole time until the part after the keyboard-solo 02:17, here
Main Riff turns into

G|---------|---------|---------|---------|---------|---------|
D|---------|---------|---------|---------|---------|---------|
A|---------|---------|-2-2-2-2-|-0-0-0-0-|-0-0-0-0-|-0-0-----|
E|-0-0-0-0-|-0-0-0-0-|---------|---------|---------|-----3-3-|

G|---------|---------|
D|---------|---------|
A|---------|---------|
E|-0-0-0-0-|-0-0-0-0-|

Comment this song and these bass tabs

Do you have corrections, comments on the bass tabs, thoughts about the song or a message to the author? Write them below.