Guitar Tabs Explorer
Megadeth guitar tabs for Crown of worms

Crown Of Worms tab


Be the first to rate

Crown Of Worms tab by Megadeth

Guitar tabs with lyrics

Print
Megadeth
"Crown Of Worms"
On the "Train Of Consequences" single  1994 (Tune down 1/2 step)
I found this on the net somewhere, and it didn't have the author's name,so
Submitted by: Nathan Tobola (nato the potatoe@aol.com)

    Intro and main verse (heavy distortion)
|-------------------------------------------------------|
|-------------------------------------------------------|
|----------------4--------6-h-7--6-------4---6----------|
|--6--6--6---6---4---6----6-h-7--6---6---4---6----6-----|
|--6--6--6---6-------6---------------6------------6-----|
|--4--4--4----------------------------------------------|


|-------------------------------------------------------|
|-------------------------------------------------------|
|----------------4--------6-h-7--6-------4--------------|
|--6--6--6---6---4---6----6-h-7--6---6---4--------------|
|--6--6--6---6-------6---------------6------------------|
|--4--4--4----------------------------------------------|

|-------------------------------------------------------|
|-------------------------------------------------------|
|----------------4--------6-h-7--6-------4---6----------|
|--6--6--6---6---4---6----6-h-7--6---6---4---6----6-----|
|--6--6--6---6-------6---------------6------------6-----|
|--4--4--4----------------------------------------------|

|-------------------------------------------------------|
|-------------------------------------------------------|
|----------------4-------4------------------------------|
|--6--6--6---6---4---6---4------------------------------|
|--6--6--6---6-------6-------------4--3--2--------------|
|--4--4--4-------------------------2--1--0--------------|

repeat.  the 2nd time, end with:

|----------------------|
|----------------------|
|----------------------|
|----------------------|
|--4--3--2---4---5-----|
|--2--1--0---2---3-----|

verse

|-------------------------------------------------------|
|-------------------------------------------------------|
|------4---------6---4-------4------------6---4---------|
|--6---4----6----6---4---6---4------------6---4----6----|
|--6--------6------------6--------6--5-------------6----|
|-------------------------------------------------------|


|-------------------------------------------------------|
|-------------------------------------------------------|
|------4-------6---4-------6---6-------4----------------|
|--3---4---6---6---4---6---6---6---6---4----------------|
|--3-------6-----------6-----------6----------6--5------|
|-------------------------------------------------------|


chorus:

|----------------------------------|
|----------------------------------|
|-------4---6----------------------|
|--6----4---6----------------------|        play 3 times
|--6---------------6-6-5-5-4-4-----|
|----------------------------------|

then:

|------------------------|
|------------------------|
|------4---6---------4---|
|--6---4---6----6----4---|
|--6------------6--------|
|------------------------|


Before and during the solo:

|--------------------------------------------------------------|
|--------------------------------------------------------------|
|-----------------4-----------------4--------------------------|
|--6--6--6---6----4---6---4-5-6--------6-5-4--------4----------|
|--6--6--6---6--------6-----------------------------6--------6-|
|--------------------------------------------------------------|


|--------------------------------------------------------------|
|--------------------------------------------------------------|
|--4--4--4--------4-----------------4--------------------------|
|--4--4--4---6----4---6---4-5-6--------6-5-4--------4----------|
|------------6--------6-----------------------------6--------6-|
|--------------------------------------------------------------|


|--------------------------------------------------------------|
|--------------------------------------------------------------|
|-----------------4-----------------4--------------------------|
|--6--6--6---6----4---6---4-5-6--------6-5-4--------4----------|
|--6--6--6---6--------6-----------------------------6--------6-|
|--------------------------------------------------------------|

|--------------------------------------------------------------|
|--------------------------------------------------------------|
|------------------4-----------------4-------------------------|
|--6--6--6---6----4---6---4-5-6--------6-5-4--------4----------|
|--6--6--6---6--------6-----------------------------6--------6-|
|--------------------------------------------------------------|

there's a part after that, before the end, that I haven't been able to figure
out yet. here's the ending:

|----------------------------------------------------------|
|----------------------------------------------------------|
|------7---6-------4---6-------6---4-----------4-----------|
|--6---7---6---6---4---6---6---6---4---6---7---4---7---6---|
|--6-----------6-----------6-----------6---7-------7---6---|
|----------------------------------------------------------|

This song's kinda hard to follow.  Listen to the recording carefully and you
should get it.  that's all, except for the solos and that one spot.  Hope it
makes some sense.  Enjoy!

Comment this song and these guitar tabs

Do you have corrections, comments on the guitar tabs, thoughts about the song or a message to the author? Write them below.