Log in

One click and you are in

Login with Facebook Login with Google

Why sign up and log in

Guitar Tabs Explorer
Metronomy bass tabs for Never wanted

Bass tabs

Tuning: Standard (E A D G)


Intro:
0:24
G|-------------------------------------------------------|
D|-------------------------------------------------------|
A|--------------------------2-1-------4------2-2---------|
E|--0-0-0-0-0-0-0-0-0-0-4-4-----0-0-0---4-03-----0-0-0-0-|

Verse 1:
0:58 "Never wanted..."
G|--------------------------------------------------------------|
D|----------------------------------------------4-4-------------|
A|----------2-1-------4------2-2---------4-4--------4-4-6-6-6-6-|
E|--0-0-4-4-----0-0-0---4-03-----0-0-0-0-----4-4----------------|


Chorus:
1:34 BASS ONLY
G|-------------------6/8----------8-6----------9---------|
D|------6/8------6----------9--------------------9--9-11-|
A|---7-------------6----------9-----------7--------------|
E|-0---7-------4----------7-----6-------0---7------------|

G|-------------------6/8---------6-8h6-------------------|
D|------6/8------6----------9-----------6--9-------------|
A|---7-------------6----------9------------------7-------|
E|-----7-------4----------7------------------------0-0-0-|


Verse 2:
1:58
G|--------------------------------------|
D|--------------------------------------|
A|---------2-1-------4------2-2---------|
E|-0-0-4-4-----0-0-0---4-03-----0-0-0-0-|

2:20 "Never wanted..."
G|--------------------------------------------------------------|
D|----------------------------------------------4-4-------------|
A|----------2-1-------4------2-2---------4-4--------4-4-6-6-6-6-|
E|--0-0-4-4-----0-0-0---4-03-----0-0-0-0-----4-4----------------|

Chorus:
2:58 BASS ONLY
G|-------------------6/8----------8-6----------9---------|
D|------6/8------6----------9--------------------9--9-11-|
A|---7-------------6----------9-----------7--------------|
E|-0---7-------4----------7-----6-------0---7------------|

G|-------------------6/8---------6-8h6-----------------|
D|------6/8------6----------9-----------6--9-----------|
A|---7-------------6----------9------------------7-----|
E|-----7-------4----------7------------------------0-0-|


Bridge:
3:20
G|--------------------------------------------------------------|
D|---6-----7-----2---2---6-----2-------2---2---2------7---2---2-|
A|--------------------------------------------------------------|
E|-4---4/5---5\0---0---4----4/5-5----0---0---4--4---5---0---0---|

G|---------------------|
D|---6---7-------2---2-|
A|---------------------|
E|-4---5--5----0---0---|


Outro:
4:01 "Never wanted..."
G|--------------------------------------|
D|--------------------------------------|
A|---------2-1-------4------2-2---------|
E|-0-0-4-4-----0-0-0---4-03-----0-0-0-0-|


************************************
| h  Hammer-on
| /  Slide up
| \  Slide down
************************************


If any problems spotted please get in touch and I will try to fix it.
Anna~

Almost there ...

Sign in to get your own page with links to favourite songs and more. You are just one click away...

Login with Facebook Login with Google