Search tabs and chords

Search for song, artist or band

Log in

One click and you are in

Login with Facebook Login with Google

Why sign up and log in

Guitar Tabs Explorer
Joji guitar tabs for Slow dancing in the dark acoustic

Guitar tabs

  • Capo on 1st
Tuning: Drop A chord diagramC majorC (A chord diagramC majorC A chord diagramG MajorG A chord diagramC majorC A chord diagramFF A chord diagramA majorA A chord diagramD MajorD)

Difficulty: Intermediate

Capo 1 on A,D,G,B, and top E. Bottom A chord diagramE MajorE tuned down to A chord diagramC majorC

Verse 1:

e|----------------------------------|----------------------------------|
B|----------1---------------1-------|----------1---------------1-------|
G|--------1---1-----------1---1-----|--------1---1-----------1---1-----|
D|------3-------3-------3-------3---|------3-------3-------3-------3---|
A|----4-----------4---4-----------4-|----3-----------3---3-----------3-|
C|--0---------------0---------------|--4---------------4---------------|
e|----------------------------------|----------------------------------|
B|----------2---------------2-------|----------1---------------1-------|
G|--------3---3-----------3---3-----|--------1---1-----------2---2-----|
D|------1-------1-------1-------1---|------1-------1-------1-------1---|
A|----1-----------1---1-----------1-|----3-----------3---3-----------3-|
C|--2---------------2---------------|--4---------------4---------------|

Chorus:

e|----------------------------------|----------------------------------|
B|----------1---------------1-------|----------1---------------1-------|
G|--------1---1-----------1---1-----|--------1---1-----------1---1-----|
D|------3-------3-------3-------3---|------4-------4-------4-------4---|
A|----4-----------4---4-----------4-|----4-----------4---4-----------4-|
C|--0---------------0---------------|--5---------------5---------------|

Verse 2:

e|----------------------------------|----------------------------------|
B|----------1---------------1-------|----------1---------------1-------|
G|--------1---1-----------1---1-----|--------1---1-----------1---1-----|
D|------3-------3-------3-------3---|------3-------3-------3-------3---|
A|----4-----------4---4-----------4-|----3-----------3---3-----------3-|
C|--0---------------0---------------|--4---------------4---------------|

e|----------------------------------|----------------------------------|
B|----------2---------------2-------|----------1---------------1-------|
G|--------3---3-----------3---3-----|--------1---1-----------2---2-----|
D|------1-------1-------1-------1---|------1-------1-------1-------1---|
A|----1-----------1---1-----------1-|----3-----------3---3-----------3-|
C|--2---------------2---------------|--4---------------4---------------|


e|----------1---------------1---------|----------1---------------1---------|
B|--------3---3-----------3---3-------|--------3---3-----------3---3-------|
G|------3-------3-------3-------3-----|------1-------1-------1-------1-----|
D|----3-----------3---3-----------3---|----3-----------3---3-----------3---|
A|--1---------------1---------------1-|--1---------------1---------------1-|
C|------------------------------------|------------------------------------|


e|----------------------------------|----------------------------------|
B|----------2---------------2-------|----------1---------------1-------|
G|--------3---3-----------3---3-----|--------1---1-----------2---2-----|
D|------1-------1-------1-------1---|------1-------1-------1-------1---|
A|----1-----------1---1-----------1-|----3-----------3---3-----------3-|
C|--2---------------2---------------|--4---------------4---------------|

Other versions of Slow Dancing In The Dark Acoustic

Slow Dancing in The DarkChords
Slow Dancing in The Dark AcousticChords
Slow Dancing in The Dark UkuleleChords
Slow Dancing in The DarkTabs

Almost there ...

Sign in to get your own page with links to favourite songs and more. You are just one click away...

Login with Facebook Login with Google