Dance On1 by The Shadows

Dance On1 tab by The Shadows

Guitar tabs

Author/Artist: Murtagh/Adams The Shadows
Title: Dance On
Transcribed by: Peter O
Email: powerful@lineone.net

---------------------------------|--------------------------------------------
---------------------------------|--------------------------------------------
---------------------------------|--------------------------------------------
----2-0--------------------------|--------------------------------------------
--------2-2-0-2-2-22-0-2---0000-0|--------------------------------------------
--0----------------------0-------|--------------------------------------------
 bend first note down with trem    playintro twice

-------------------|--------------------|------------|-------------------|----
--------3-2h3p2----|-------3-2h3p2---5--|-5-4-3-2-3--|--5-4-3-2-3--------|----
------2---------2--|-----2---------2---4|-----------4|------------4-2-1-2|----
--2-4-------------2|-2-4----------------|------------|-------------------|----
-------------------|--------------------|------------|-------------------|----
-------------------|--------------------|------------|-------------------|----


--------------|-|-----------------|--------------------|------------|---------
-----2--------|-|------3-2h3p2----|-------3-2h3p2---5--|-5-4-3-2-3--|---------
---4---4-2-1-2|-|----2---------2--|-----2---------2---4|-----------4|---------
--------------|-|2-4-------------2|-2-4----------------|------------|---------
--------------|-|-----------------|--------------------|------------|---------
--------------|-|-----------------|--------------------|------------|---------


------------------|-|-10-12-14-12-10-9-10-12-9|-10-12-14-12-10-9--------------
-5-4-3-2-3--------|-|-------------------------|------------------10-10-12-----
-----------4-2-1-2|-|-------------------------|---------------------------9---
------------------|-|-------------------------|-------------------------------
------------------|-|-------------------------|-------------------------------
------------------|-|-------------------------|-------------------------------
                     slide up           slide

----------------|------------------|------------|------------------|----------
----------------|------------------|------------|------------------|----------
----------------|------------------|------------|------------------|----------
-------0-0------|-------0-0-----2--|2-1-0-------|-2-1-0------------|----------
-----0-----2-0--|-----0-----2-0---2|------4-5-2-|-------4-5-2-0---0|-2-4-2-0--
-0-2-----------0|-0-2--------------|------------|---------------4--|----------


----|--------------------------------|-|--10-12-14-12-10-9-10-12-9|10-12-14---
----|--------------------------------|-|--------------------------|-----------
----|--------------------------------|-|--------------------------|-----------
----|--------------------------------|-|--------------------------|-----------
---0|--------------------------------|-|--------------------------|-----------
-4--|--------------------------------|-|--------------------------|-----------
   play intro twice more here

-12-10-9--------|------------------|--------------------|------------|--------
---------10-12--|-------3-2h3p2----|-------3-2h3p2---5--|-5-4-3-2-3--|-5-4-3--
---------------9|-----2---------2--|-----2---------2---4|-----------4|--------
----------------|-2-4-------------2|-2-4----------------|------------|--------
----------------|------------------|--------------------|------------|--------
----------------|------------------|--------------------|------------|--------


------|------------------|----------------------------------------------------
-2-3--|---------2--------|----------------------------------------------------
-----4|-2-1-2-4---4-2-1-2|----------------------------------------------------
------|------------------|----------------------------------------------------
------|------------------|----------------------------------------------------
------|------------------|----------------------------------------------------
              play intro here 3 times as outro

Other versions of Dance On1

Alternative guitar chords and tabs for Dance On1 by The Shadows

Find guitar tabs and chords

A B C D E F G H I J K L M N O P Q R S T U V W X Y Z #