Dance On by The Shadows

Dance On tab by The Shadows

Guitar tabs

shadows_dance on

Basstab by Jan Bjorklund, Finland
You are welcome to request for basstabs!
Fingering and positions as suggested by TablEdit, please use common sense!

TablEdited by Jan Bjorklund
Tuning : E A D G 	Time Signature: 4/4

 |    |    |    |     |    |    |    |
||---------------------------------|---------------------------------||
|*---------------------------------|---------------------------------||
|*------------------------2--------|-------------2-------------------||
||0-----------0---4----------------|-----0-----------2-------4-------||

>1|    |    |    |     |    |    |    |
|----------------------------------|---------------------------------||
|-------------2--------------------|---------------------------------*|
|-0-----------------------4--------|-----0---------------------------*|
|----------------------------------|-----------------4-------2-------||

>2|    |    |    |     |    |    |    |
|----------------------------------|----------------------------------|
|-------------------------2--------|----------------------------------|
|-0-----------0---4----------------|-0--------------------------------|
|----------------------------------|----------------------------------|

 |    |    |    |     |    |    |    |
|----------------------------------||---------------------------------|
|----------------------------------|*------------4---2-------4--------|
|----------------------------------|*0--------------------------------|
|----------------------------------||---------------------------------|

 |    |    |    |     |    |    |    |
|---------------------------------||----------------------------------|
|-------------4---2-------4-------*|----------------------------------|
|-0-------------------------------*|-------------4---2-------4--------|
|---------------------------------||-0--------------------------------|

 |    |    |    |     |    |    |    |
|----------------------------------||---------------------------------|
|----------------------------------|*------------4---0----------------|
|-------------4---2-------4--------|*2-----------------------2--------|
|-0--------------------------------||---------------------------------|

 |    |    |    |     |    |    |    |
||--------------------------------||---------------------------------||
|*--------------------------------*|-------------4---2---------------*|
|*------------4---2-------4-------*|-0-----------------------4-------*|
||0-------------------------------||---------------------------------||

 |    |    |    |     |    |    |    |
|----------------------------------|----------------------------------|
|----------------------------------|----------------------------------|
|-0--------------------------------|-0-------0-------2-------4--------|
|----------------------------------|----------------------------------|

 |    |    |    |     |    |    |    |
|----------------------------------|----------------------------------|
|-0--------------------------------|-2--------------------------------|
|-----------------0----------------|-------------------------2--------|
|-------------------------2--------|-----------------4----------------|

 |    |    |    |     |    |    |    |
|----------------------------------|----------------------------------|
|-----------------4-------2--------|----------------------------------|
|-0-----------0--------------------|-0-------0-------2-------4--------|
|----------------------------------|----------------------------------|

 |    |    |    |     |    |    |    |
|----------------------------------|----------------------------------|
|-0--------------------------------|-2--------------------------------|
|-----------------0----------------|-----------------2----------------|
|-------------------------2--------|-------------------------4--------|

 |    |    |    |     |    |    |    |
|----------------------------------|----------------------------------|
|-----------------0-------1--------|-2--------------------------------|
|-2-----------2--------------------|---------4---2-------4---2--------|
|----------------------------------|-----------------------------4----|

 |    |    |    |     |    |    |    |
|-------------------------2--------|-7-----------6---4---------------||
|---------2-------4----------------|-------------------------7-------*|
|----------------------------------|---------------------------------*|
|-0--------------------------------|---------------------------------||

 |    |    |    |     |    |    |    |
|-----2-----------2-------1--------|----------------------------------|
|----------------------------------|-------------------------2--------|
|----------------------------------|-0-----------0---4----------------|
|----------------------------------|----------------------------------|

 |    |    |    |     |    |    |    |
|----------------------------------|----------------------------------|
|----------------------------------|----------------------------------|
|---------0-------2-------4--------|----------------------------------|
|----------------------------------|-0--------------------------------|

 |    |    |    |     |    |    |    |
|----------------------------------|----------------------------------|
|----------------------------------|-------------4---2-------4--------|
|-------------4---2-------4--------|-0--------------------------------|
|-0--------------------------------|----------------------------------|

 |    |    |    |     |    |    |    |
|----------------------------------|----------------------------------|
|----------------------------------|-------------------------2--------|
|-----0----------------------------|-0-----------0---4----------------|
|-----------------4-------2--------|----------------------------------|

 |    |    |    |     |    |    |    |
|----------------------------------|----------------------------------|
|----------------------------------|-------------------------2--------|
|-----0----------------------------|-0-----------0---4----------------|
|-----------------4-------2--------|----------------------------------|

 |    |    |    |
|----------------------------------|
|----------------------------------|
|-0--------------------------------|
|----------------------------------|


m/

Other versions of Dance On

Alternative guitar chords and tabs for Dance On by The Shadows

Find guitar tabs and chords

A B C D E F G H I J K L M N O P Q R S T U V W X Y Z #