Guitar Tabs Explorer
Rammstein bass tabs for Halt

Halt bass tab


Be the first to rate

Halt bass tab by Rammstein

Bass tabs

Print

-------------------------------------------------------------------------------
                            Halt - Rammstein
-------------------------------------------------------------------------------
Tabbed by: Stancranford
E-mail: simonhawkinsuk@gmail.com

Tuning: DADG

Intro Fill

G|--------|
D|--------|
A|--------|
D|-6-5-3--|

Main Riff
                                        x3
G|---------------------------------------|----------------------------------|
D|---------------------------------------|----------------------------------|
A|---------------------------------------|----------------------------------|
D|-0--0-0-0--0--0-0-0--0--0-0-0--0--0-0--|-0--0-0-0--0--0-0-0--0------6-5-3-|

Verse
                          x4                        x3
G|-------------------------|-------------------------|------------------------|
D|-------------------------|-------------------------|------------------------|
A|-------------------------|-------------------------|------------------------|
D|-0-0-0-0-0-0-0-0-0-0-0-0-|-3-3-3-3-3-3-3-3-3-3-3-3-|-3-3-3-3-3-3-3-3-3------|

Chorus

G|-------------------------------------------------------------------------------------------------|
D|-------------------------------------------------------------------------------------------------|
A|-5-5-5-5-5-5-5-5-5-5-5-5-3-3-3-3-3-3-3-3-3-3-3-3-------------------------------------------------|
D|-------------------------------------------------3-3-3-3-3-3-3-3-3-3-3-3-5-5-5-5-5-5-5-5-5-5-5-5-|

Bridge

G|----------------------------------------------|
D|----------------------------------------------|
A|-5--5-5--5-5--5-5--5-3--3-3--3-3--3-----------|
D|------------------------------------3-3-3-0---|

Order:
Guitar Intro
Intro Fill x 1
Main Riff x 2
Rest
Verse x 1
Chorus x 2
Main Riff x 1
Verse x 1
Chorus x 3
Bridge x 1
Rest
Chorus x 3
Bridge x 1


| /  slide up
| \  slide down
| h  hammer-on
| p  pull-off
| ~  vibrato
| +  harmonic
| x  Mute note

Comment this song and these bass tabs

Do you have corrections, comments on the bass tabs, thoughts about the song or a message to the author? Write them below.