Search tabs and chords

Search for song, artist or band

Log in

One click and you are in

Login with Facebook Login with Google

Why sign up and log in

Guitar Tabs Explorer
Rammstein guitar tabs for Du riechst so gut

Guitar tabs

I love this song its so catchy and pretty simple. Enjoy


Keys:

< > - Pinch Harmonic
b  - bend
___ - palm mute
h  - hammer on
p  - pull off
INTRO:

|------------------------------------------------------|     |---|
|------------------------------------------------------|     |---|
|------------------------------------------------------|     |---|
|-<2>b-------------------------------------------------|     |---|
|--------3----3----3--3----3-------3----3----3--3----3-|     |---|
|------0-1--0-1--0-1--1--0-1--0--0-1--0-1--0-1--1--0-1-| 4x  |-0-|
________________________  _____________________         _

|--------------------------------------------------|
|--------------------------------------------------|
|--------------------------------------------------|
|--------------------------------------------------|
|-2--2----3----3--3----3-------3----3----3--3----3-|
|-0--0--0-1--0-1--1--0-1--0--0-1--0-1--0-1--1--0-1-|
_________________________  _____________________

|------------------------------------------------------|     |---|
|------------------------------------------------------|     |---|
|------------------------------------------------------|     |---|
|-<2>b-------------------------------------------------|     |---|
|--------3----3----3--3----3-------3----3----3--3----3-|     |---|
|------0-1--0-1--0-1--1--0-1--0--0-1--0-1--0-1--1--0-1-| 3x  |-0-|
________________________  _____________________         _

VERSE:

|------------------------------------------------------|     |---|
|------------------------------------------------------|     |---|
|------------------------------------------------------|     |---|
|-<2>b-------------------------------------------------|     |---|
|--------3----3----3--3----3-------3----3----3--3----3-|     |---|
|------0-1--0-1--0-1--1--0-1--0--0-1--0-1--0-1--1--0-1-| 4x  |-0-|
________________________  _____________________         _


CHORUS:

|-----------------------------------------------------
|-----------------------------------------------------
|-2----5--------------------2----5--------------------
|-2----5----2---------------2----5----2---------------
|-0----3----2---------------0----3----2---------------
|-----------0-----0--0-1--0-----------0-----0--0-0--0-
_________                 _________

-----------------------------------------------------|
-----------------------------------------------------|
-2----5--------------------7----5----4---------------|
-2----5----2---------------7----5----4---------------|
-0----3----2---------------5----3----2---------------|
-----------0-----------------------------------------|

|---------------------------|     |------------------------------|
|---------------------------|     |------------------------------|
|-----2----4----------------|     |----7----5----4---------------|
|-----2----4----2-----------|     |----7----5----4---------------|
|-----0----2----2-----------|     |----5----3----2---------------|
|-0-0-----------0-----------| 3x  |------------------------------|
___


VERSE


SOLO:

|-----------------------------------------------
|-----------------------------------------------
|-h14p0-h14p0-h14p0-h14p0-h12p0-h13p0-h12p0-h14-
|-----------------------------------------------
|-----------------------------------------------
|-----------------------------------------------

-------------------------------------------------|
-------------------------------------------------|
-------------------------------------------------|
-h14p0-h14p0-h14p0-h14p0-h16p0-h14p0-h16p0-h14p0-|
-------------------------------------------------|
-------------------------------------------------| 4x


CHORUS:

|-----------------------------------------------------
|-----------------------------------------------------
|-2----5--------------------2----5--------------------
|-2----5----2---------------2----5----2---------------
|-0----3----2---------------0----3----2---------------
|-----------0-----0--0-1--0-----------0-----0--0-0--0-
_________                 _________

-----------------------------------------------------|
-----------------------------------------------------|
-2----5--------------------7----5----4---------------|
-2----5----2---------------7----5----4---------------|
-0----3----2---------------5----3----2---------------|
-----------0-----------------------------------------|

|---------------------------|     |------------------------------|
|---------------------------|     |------------------------------|
|-----2----4----------------|     |----7----5----4---------------|
|-----2----4----2-----------|     |----7----5----4---------------|
|-----0----2----2-----------|     |----5----3----2---------------|
|-0-0-----------0-----------| 3x  |------------------------------|
___

|---------------------------|     |---------------------------------|
|---------------------------|     |---------------------------------|
|-----2----4----------------|     |----7----5----4---------------2--|
|-----2----4----2-----------|     |----7----5----4---------------2--|
|-----0----2----2-----------|     |----5----3----2---------------0--|
|-0-0-----------0-----------| 3x  |---------------------------------|
___

Other versions of Du Riechst So Gut

Du riechst so gut (Ver. 2)Tabs
Du riechst so gut (Ver. 3)Tabs

Almost there ...

Sign in to get your own page with links to favourite songs and more. You are just one click away...

Login with Facebook Login with Google