Log in

One click and you are in

Login with Facebook Login with Google

Why sign up and log in

Guitar Tabs Explorer
Megadeth bass tabs for Absolution

Bass tabs with lyrics

Gtr I (E A D G B E) - 'Acoustic 1'
Gtr II (E A D G B E) - 'Acoustic 2'
Gtr III (E A D G B E) - 'Rhythm'
Gtr IV (E A D G B E) - 'Lead Left'
Gtr V (E A D G B E) - 'Lead Right'
Gtr VI (E A D G B E) - 'Lead Neutral'
  Intro
  Q=112
  4/4
  Gtr I
  E E E E E E E E  E E E E E E E E  E E E E E E E E  E E E E E E E E
||-------------------|------------------|------------------|------------------|
||o-1-------1--------|-1-------1--------|-1-------1--------|-1-------1--------|
||------2-------2----|-----2-------2----|-----2-------2----|-----2-------2----|
||----2---2---2---2\-|---1---1---1---1/-|---2---2---2---2\-|---1---1---1---1/-|
||o------------------|------------------|------------------|------------------|
||-------------------|------------------|------------------|------------------|
|
|  Gtr II
|  E E E E E E E E  E E E E E E E E  E E E E E E E E  E E E E E E E E
||--0-------0--------|------------------|-0-------0--------|------------------|
||o-----1-------1----|-4---1---4---1----|-----1-------1----|-4---1---4---1----|
||----2---2---2---2--|---2---2---2------|---2---2---2---2--|---2---2---2------|
||-------------------|---------------4--|------------------|---------------4--|
||o------------------|------------------|------------------|------------------|
||-------------------|------------------|------------------|------------------|


      |-3-|         |-3-|
 E E E E E S S S E E  E E E E E S S S E E
|---------------------|-----------------------|
|-1-----1-3-1h3p1-----|-/4-----4-6-4h6p4------|
|-----2-----------2---|------5-----------5----|
|---2---------------2-|----5---------------5\-|
|---------------------|-----------------------|
|---------------------|-----------------------|
|
|      |-3-|         |-3-|
| E E E E E S S S E E  E E E E E S S S E E
|-0-----0-1-0h1p0-----|-/3-----3-4-3h4p3------|
|-----1-----------1---|------4-----------4----|
|---2---------------2-|----5---------------5\-|
|---------------------|-----------------------|
|---------------------|-----------------------|
|---------------------|-----------------------|

                   Q=56
      |-3-|    |---3---|
 E E E E E S S S E E  Q Q Q Q H  +W
|---------------------|------------|---------||
|---------------------|------------|--------o||
|-3---0-3-5-3h5p3-0---|---0-0------|---------||
|---0---------------0-|-2-----2h3--|-(3)-----||
|---------------------|------------|--------o||
|---------------------|------------|---------||
|
|      |-3-|    |---3---|
| E E E E E S S S E E  Q Q Q Q H  +W
|---------------------|------------|---------||
|-3-----3-4-3h4p3-----|------------|--------o||
|-----3-----------3---|-2h5-5p0-2--|-(2)-----||
|---5---------------5-|------------|---------||
|---------------------|------------|--------o||
|---------------------|------------|---------||


 Q=112
 E E E E E E E E  E E E E E E E E  E E E E E E E E  E E E E E E E E
|------------------|------------------|------------------|------------------|
|-1-------1--------|-1-------1--------|-1-------1--------|-1-------1--------|
|-----2-------2----|-----2-------2----|-----2-------2----|-----2-------2----|
|---2---2---2---2\-|---1---1---1---1/-|---2---2---2---2\-|---1---1---1---1/-|
|------------------|------------------|------------------|------------------|
|------------------|------------------|------------------|------------------|
|
| E E E E E E E E  E E E E E E E E  E E E E E E E E  E E E E E E E E
|-0-------0--------|------------------|-0-------0--------|------------------|
|-----1-------1----|-4---1---4---1----|-----1-------1----|-4---1---4---1----|
|---2---2---2---2--|---2---2---2------|---2---2---2---2--|---2---2---2------|
|------------------|---------------4--|------------------|---------------4--|
|------------------|------------------|------------------|------------------|
|------------------|------------------|------------------|------------------|


      |-3-|
 E E E E E S S S E E  E E E E E E E E
|---------------------|------------------|
|-1-----1-3-1h3p1-----|-----1------------|
|-----2-----------2---|---2--------------|
|---2---------------2-|-1------1-----1p0-|
|---------------------|----------3-3-----|
|---------------------|------------------|
|
|      |-3-|
| E E E E E S S S E E  E E E E E E E E
|-0-----0-1-0h1p0-----|-0----------------|
|-----1-----------1---|---1---/4-------4-|
|---2---------------2-|-----2----5---5---|
|---------------------|------------3-----|
|---------------------|------------------|
|---------------------|------------------|


 E E S S E E E Q   E S S E E E E E E
|-------------------|--------------------|
|-------------------|---2p1h2------------|
|-0---3p2-3-0-------|---------3----------|
|---0---------0-0---|-----------3-3s2-2s=|
|-------------------|-1------------------|
|-------------------|--------------------|
|
| E E E  E E E E E  E E  E E E E E E
|-----------3---3h5-|-6------------------|
|-3-------3---3-----|---6-----6-------6--|
|-----3-------------|-------6---6---6----|
|---5---------------|-------------8------|
|-------------------|--------------------|
|-------------------|--------------------|


  ~~~
                |-3-|
 E H..        E E E E.S S S S E E  +W      +W
|-------------------|-------0h3-0h3p0-----|------------|--------||
|-------------------|-----------------2---|------------|--------||
|-------------------|-----3-------------3-|-(3)--------|-(3)----||
|-7-7---------------|---2-----------------|------------|--------||
|-------------------|-0-------------------|------------|--------||
|-------------------|---------------------|------------|--------||
|
|                |-3-|
| E E  E E E E E E  E E E E.S S S S E E  +W      +W
|-----------0-------|-------3-6-3h6p3p0---|------------|--------||
|---------6---6-----|-----1-------------2-|-(2)--------|-(2)----||
|-------5-------5---|---0-----------------|------------|--------||
|---7-------------7-|---------------------|------------|--------||
|-0-----------------|-0-------------------|------------|--------||
|-------------------|---------------------|------------|--------||


 Pre-Solo
 Gtrs I, II
  E E E E E E E E  E  E E E E E E +E  +W      +W
|-------------------|---------------------|------------|--------|
|-------------------|---------------------|------------|--------|
|-------------------|-------0-------3-(3)-|-(3)--------|-(3)----|
|-------0-------0---|-----0-------3-------|------------|--------|
|-----0-------0-----|-0-------0-1---------|------------|--------|
|---1-----1-0-----0-|---------------------|------------|--------|
|
| Gtr III
| W          H..       E   W      +W
|-------------------|---------------------|------------|--------|
|-------------------|---------------------|------------|--------|
|-------------------|---------------------|------------|--------|
|-------------------|------------------3--|--2---------|-(2)----|
|-------------------|------------------3--|--2---------|-(2)----|
|-------------------|------------------1--|--0---------|-(0)----|


 Gtr IV
  H    H    +W        H   H    +W
|--12------------|---------------|--10-----------|---------------||
|----------12----|-(12)----------|---------10----|-(10)----------||
|----------------|---------------|---------------|---------------||
|----------------|---------------|---------------|---------------||
|----------------|---------------|---------------|---------------||
|----------------|---------------|---------------|---------------||
|
| +W        +W       +W       +W
|----------------|---------------|---------------|---------------||
|----------------|---------------|---------------|---------------||
|----------------|---------------|---------------|---------------||
|--(2)-----------|--(2)----------|--(2)----------|--(2)----------||
|--(2)-----------|--(2)----------|--(2)----------|--(2)----------||
|--(0)-----------|--(0)----------|--(0)----------|--(0)----------||
|
| Gtr V
|  <
|  w        H   H    +W        H   H
|----------------|--12-----------|---------------|--10-----------||
|----------------|---------12----|-(12)----------|---------10----||
|-(<7>)----------|---------------|---------------|---------------||
|----------------|---------------|---------------|---------------||
|----------------|---------------|---------------|---------------||
|----------------|---------------|---------------|---------------||


 Guitar Solo 1
 Gtr VI
                          ~~~~~~~
  E   a  H      a  Q    a  E     H      a  Q.     S S
|-----------------------------------------------|------------------------------------|
|---------x---------------x-----------x---------|---------------x--------------------|
|-15:b17---15:b17---------15:b17-----15:b17-|-15:b17---------15:pb17r==========|
|---x-----x---------------x-----------x---------|---------------x--------------12-14-|
|-----------------------------------------------|------------------------------------|
|-----------------------------------------------|------------------------------------|
|
| Gtr III
|  E     E   E E E   E   E   E     E   E E E   E   E E E
|-----------------------------------------------|------------------------------------|
|-----------------------------------------------|-------------------0----------------|
|-----------------------0-----------------------|-----------0--------------0---------|
|-------------------2-4-------4-----2p====0-----|---------2---2--------------2S=5----|
|-------------2---------------------------------|---4---------------------------5----|
|---0-------------------------------------------|-------------------------------3----|


  ~~~~~              ~~~
          |----3----|
  H     a a Q  Q  Q   H.      +E  S S
|--------------------------------|-----------------------------|
|--------------------------------|-----------------------------|
|-----------------15---15---15---|-15------------(15)\---------|
|-14b16---------x-------x----x---|--x------------------12h14---|
|-------------x------------------|-----------------------------|
|--------------------------------|-----------------------------|
|
| E  E E E   E E  E  E  E E E E E E  E  E
|--------------------------------|-----------------------------|
|--------------------------------|-----------0-----------------|
|------------------0-------------|-------0-----0---------------|
|---------2-4--------4----2p===0-|-----2---2-------5----4------|
|-------2------------------------|--4--------------5----4------|
|--0-----------------------------|-----------------3----2------|


  ~~~                    ~~
                |-----------3------------|
  H.     a S S S S  Q  Q  Q  Q  Q  Q
|---------------------------|-15----------------------------|
|---------------------------|------15-----------------------|
|-12---------------12-14h15-|-----------14---12--------12---|
|---------------14----------|---------------------14--------|
|-------------x-------------|-------------------------------|
|---------------------------|-------------------------------|
|
| E E E E E E E   E    E E  E  E E E  E  E
|---------------------------|-------------------------------|
|---------------------------|-----------------0-------------|
|-----------0---------------|---------0---------0-----------|
|-------2-4---4--2p====0----|----2---------2---------2S===5-|
|-----2---------------------|--4--------------------------5-|
|--0------------------------|-----------------------------3-|


  |-----------------3-----------------|
  Q    Q   Q   Q   Q   Q   S S S S S S S S S S S S Q
|------------------------------------------|------------------------------------------------|
|------------------------------------------|------------------------------------------------|
|-14b15---12:----------12:---------------|------------------------------------------------|
|----------------14:----------14:---12---|-12h14p12----12---------------------------------|
|------------------------------------------|----------14----14p13p12-13p12----12------------|
|------------------------------------------|-------------------------------15----12b15r=====|
|
| E  E   E   E  E E   E  E  E   E   E   E   E   E   E  E
|------------------------------------------|------------------------------------------------|
|------------------------------------------|--------------------------0---------------------|
|-------------------------0----------------|--------------0-----------------0---------------|
|--------------2------4------4------2p===0-|--------2-----------2-----------------5----4----|
|-------2----------------------------------|--4-----------------------------------5----4----|
|--0---------------------------------------|--------------------------------------3----2----|


  ~~
       |--------3---------|  |-------------------3--------------------|
  H    +Q  a E E E  E  E E  E E E  E E E  E E E  E
|---------------------------------|---------------------------------------------|
|---------------------------------|-------------------------------------12------|
|---------------------------------|-----------------------12------14p12------15-|
|---------------------------------|---------12----14p==12----14-----------------|
|------------------------------12h|=13h14------14-------------------------------|
|-12-------(12)---x-12h14h15------|---------------------------------------------|
|
| E E E E  E E    E  E    E  E   E  E   E  E   E  E
|---------------------------------|---------------------------------------------|
|---------------------------------|------------------------0--------------------|
|------------0--------------------|-------------0---------------0---------------|
|------2-4------4-------2p===0----|-------2----------2----------------2S===5----|
|----2----------------------------|--4-------------------------------------5----|
|--0------------------------------|----------------------------------------3----|


  |---------------------3----------------------|    |--------3--------|
  E E  E E S S S E  E E S E E  E    Q    Q    Q    H
|-----------------------------------------15h==17b19-|-17pb19---17pb19---17pb19---17pb19r=======|
|-15p12------12-12h15p12------12h15S17-17------------|------------------------------------------|
|---------15-------------15--------------------------|------------------------------------------|
|----------------------------------------------------|------------------------------------------|
|----------------------------------------------------|------------------------------------------|
|----------------------------------------------------|------------------------------------------|
|
| E  E   E   E    E   E   E  E     E   E    E    E E   E E E
|----------------------------------------------------|------------------------------------------|
|----------------------------------------------------|-----------------------------0------------|
|---------------------------0------------------------|-----------------0-----------------0------|
|-------------2-----4-------------4-----2p===0-------|--------2-----------------2----------5-4--|
|-------2--------------------------------------------|--4----------------------------------5-4--|
|--0-------------------------------------------------|-------------------------------------3-2--|


  |-------------------3--------------------|  |-------------------3--------------------|
  E E  E E E  E E E  E E E  E  E E  E E E  E E E  E E E  E
|---------------12----------------------------|----12-------------------------------12------|
|-15p12------12------15p12------12h15p12------|-12------15p12------12h15p12------12------15p|
|---------15---------------15--------------15-|---------------15--------------15------------|
|---------------------------------------------|---------------------------------------------|
|---------------------------------------------|---------------------------------------------|
|---------------------------------------------|---------------------------------------------|
|
| E  E   E  E   E  E   E  E    E  E   E  E   E  E   E  E
|---------------------------------------------|---------------------------------------------|
|---------------------------------------------|------------------------0--------------------|
|------------------------0--------------------|-------------0---------------0---------------|
|-------------2----4----------4-----2p===0----|-------2----------2----------------2S===5----|
|-------2-------------------------------------|--4-------------------------------------5----|
|--0------------------------------------------|----------------------------------------3----|


  |---------------------------------3----------------------------------|
  S S S S S S S S S S S S S S S S S S S S S S S S
|----------------------12--------------------------------------------------|
|-12----12h15p12----12----15p12----12-12-12----12-15-12-12----12-15-12-12--|
|----15----------15-------------15----------15-------------15--------------|
|--------------------------------------------------------------------------|
|--------------------------------------------------------------------------|
|--------------------------------------------------------------------------|
|
| E    E    E    E    E    E    E    E
|--------------------------------------------------------------------------|
|--------------------------------------------------------------------------|
|--------------------------------------0-----------------------------------|
|--------------------2--------4-----------------4--------2p=======0--------|
|-----------2--------------------------------------------------------------|
|--0-----------------------------------------------------------------------|


  |--------------------------------3---------------------------------|
  S S S S S S S S S S S S E.  S S S S S  S  S S S
|-12-------------12-----------------------------------------------------|
|----15p12-12-12----15p12----15p12--------------------------------------|
|-------------------------15-------15-15\-----12h14-15h16-16:s15p14----|
|-----------------------------------------/14------------------------16S|
|-----------------------------------------------------------------------|
|-----------------------------------------------------------------------|
|
| E    E    H.
|-----------------------------------------------------------------------|
|-----------------------------------------------------------------------|
|-----------------------------------------------------------------------|
|--3--------5-----------------------------------------------------------|
|--5--------3-----------------------------------------------------------|
|-----------------------------------------------------------------------|


  ~~~~
  H..       a E
|-----------------------|
|-----------------------|
|-17---------------x-17-|
|-17---------------x-17-|
|-----------------------|
|-----------------------|
|
| E  E E E E E E  E
|-----------------------|
|------------0----------|
|--------0-----0------0-|
|------2---2-----2------|
|--3--------------------|
|-----------------------|


  ~~~~
                   |------3------|
  H..       a E  H     Q   Q   Q
|-----------------------|-------------------------------|
|-----------------------|-------------------------------|
|-16---------------x-16-|-19--------19-----21-----19----|
|-17---------------x-17-|-17-------(17)---(17)---(17)---|
|-----------------------|-------------------------------|
|-----------------------|-------------------------------|
|
| E  E E E E E E  E  E E E E  E E   E   E
|-----------------------|-------------------------------|
|------------0----------|------------0------------------|
|--------0-----0------0-|------0--------0-------------0-|
|------2---2-----2------|----2---2-------------2--------|
|--2--------------------|--2----------------------------|
|-----------------------|-------------------------------|


  H..        +E
|--------------------------||
|--------------------------||
|-18tr19-------------(18)\-||
|--------------------------||
|--------------------------||
|--------------------------||
|
| E   E E E E E E  E
|--------------------------||
|--------------------------||
|----------0---3-0-----0---||
|--------0---0-----0-------||
|--1-----------------------||
|--------------------------||


 Pre Solo II
 Gtr III
 E E E E E E E E  E E E E E E E E  E E E E E E E E  E E  E E E E E E
|-----------------|-----------------|-----------------|---------------------||
|-----------------|-----------------|-----------------|---------------------||
|-----------------|-----------------|-----------------|---------------1-----||
|-----0-1---0-1---|-----0-1---0-1---|-----0-1---0-1---|---------3---0---3---||
|---3-----3-----3-|---3-----3-----3-|---3-----3-----3-|-----2-------------2-||
|-4---------------|-3---------------|-2---------------|--1--------4---------||
|
| Gtr VI
| W         W         W         a W
|-----------------|-----------------|-----------------|---------------------||
|-----------------|-----------------|-----------------|---------------------||
|-----------------|-----------------|-----------------|--x--3b4-------------||
|-----------------|-----------------|-----------------|-<3>-----------------||
|-----------------|-----------------|-----------------|---------------------||
|-----------------|-----------------|-----------------|---------------------||


 Guitar Solo II
  E E E E E     E   E     E       E E E E E E E E
|----------------------------------------------|----------------------|
|----------------------------------------------|--------------0-------|
|------------0---------------------------------|----------0-----0-----|
|-------2-4------------4-----2---------0-------|--------2---2-----2-5-|
|-----2----------------------------------------|------4-------------3-|
|--0-------------------------------------------|--------------------3-|
|
|                           ~~~~~~~~~~~~~~~~~
| +H    +E  a  S.+T S a  S. +T S  a  W
|----------------------------------------------|----------------------|
|----------------------------------------------|----------------------|
|-(3)-------(3)\--3b4==3r(3)-x--3b4==3r==(3)-x-|--3b4-3---------------|
|----------------<3>-----------<3>-------------|-<3>------------------|
|----------------------------------------------|----------------------|
|----------------------------------------------|----------------------|


  E   E E E E  E E  E   E  E E E E E E E
|----------------------------|--------------------------|
|----------------------------|-------------0------------|
|---------------0------------|---------0-----0----------|
|----------2-4-------4-2---0-|-------2---2-----5--4-----|
|--------2-------------------|---4-------------3--2-----|
|--0-------------------------|-----------------2--2-----|
|
|~~~~~~~~            ~~~~~
| +H      +E  E E  E   H..       S S
|----------------------------|--------------------------|
|----------------------------|--------------------------|
|-(3)pb4-------(3)\-/7-6b7r4-|----------------------11--|
|----------------------------|-/14---------------14-----|
|----------------------------|--------------------------|
|----------------------------|--------------------------|


  E   E  E  E E E E   E    E E E E E E E   E
|------------------------------------|---------------------------|
|------------------------------------|-----------0---------------|
|--------------------0---------------|-------0-----0-------------|
|-------------2----4---4--2-----0----|-----2---2------5-----4----|
|--------2---------------------------|--4-------------3-----2----|
|--0---------------------------------|----------------2-----2----|
|
|                    ~~~
| E   E a H      S S S S  H.      S S S S
|------------------------------------|---------------------------|
|------------------------------------|---------------------------|
|-12b14r11---11b13r======12p11-------|---------------------------|
|----------x-------------------14p12-|---------------------------|
|------------------------------------|-14------------12h14p12----|
|------------------------------------|------------------------15-|


  E  E E     E   E   E   E   E    E   S S E S S q  E  E
|-------------------------------------------------|------------------------------------|
|-------------------------------------------------|------------------------------------|
|--------------------------0----------------------|------------------------------------|
|----------2---------4-----------4-----2-----0----|--5-----------5-----5----5----4-----|
|-------2-----------------------------------------|--3-----3--3--3-3-3-3----3----2-----|
|--0----------------------------------------------|-------------------------2----2-----|
|
| Q    S S   +S  E  S S S S S S S  S S S S H     +E  E
|-------------------------------------------------|------------------------------------|
|-------------------------------------------------|------------------------------------|
|-----------------------12------------------------|------------------------------------|
|-------------------------------------------------|------------------------------------|
|-12b13r==10-12b13-(12)------13p12-10h12-13p12p10-|----------10------------------------|
|-------------------------------------------------|-12p10-12----12--------(12)\-12b14--|


  E   E   E   E   E E E    E
|-------------------------------------------------|
|-------------------------------------------------|
|---------------------------0---------------------|
|---------------2-----4-------4--2--------0-------|
|---------2---------------------------------------|
|--0----------------------------------------------|
|
|              ~~
|                |------3-------|
| E   S S S S S S Q  S S S S S S
|-------------------------------------------------|
|-------------------------------------------------|
|-------------------------------------------------|
|----------------------------------------14h16h17-|
|--------10s12-12s14-14s16-16---14h16h17----------|
|-14b15\------------------------------------------|


  E    E    E    E  E E E     E
|----------------------------------------------------------|
|----------------------------------0-----------------------|
|--------------------0---------------0---------------------|
|-----------2-----------------2---------2----------5-------|
|--4-----------------------------------------------3-------|
|--------------------------------------------------3-------|
|
|               ~~~~~
| |-----------3-----------|      |------3------|
| S S S S S S S S S Q.    E   E    E
|-------------------15h17s19S22b24-----22b23-22b24---22b23-|
|----------15h16h19----------------------------------------|
|-14h16h18-------------------------------------------------|
|----------------------------------------------------------|
|----------------------------------------------------------|
|----------------------------------------------------------|


  E      E    E  E E E  E   E    E  E E E E  E   E  E
|-----------------------------------------------|--------------------------------------|
|-----------------------------------------------|--------------0-----------------------|
|------------------------------0----------------|---------0---------0------------------|
|-----------------------2----4---4---2-----0----|-------2---2-------------5----4-------|
|--------------2--------------------------------|--4----------------------3----2-------|
|--0--------------------------------------------|-------------------------2----2-------|
|
|            ~~~~~
| |------3-------|                      |----------3----------|
| E   E    E   H      +E  a S S  H      E E  E E E  S S
|-22pb24r22b24r==22b23-22b24-------(22)\-x------|-15b17-------15-12h==14----12---------|
|------------------------------------------xS12-|------------------------15------15s12-|
|-----------------------------------------------|--------------------------------------|
|-----------------------------------------------|--------------------------------------|
|-----------------------------------------------|--------------------------------------|
|-----------------------------------------------|--------------------------------------|


  E   E    E    E    E    E    E      E
|--------------------------------------------------------------------------|
|--------------------------------------------------------------------------|
|----------------------------------0---------------------------------------|
|-----------------2-------4-----------------4--------2------------0--------|
|--------2-----------------------------------------------------------------|
|--0-----------------------------------------------------------------------|
|
|             |----------------------3----------------------|
| S S S   S S S a S S S S S S S S S S S   S S S S
|------------------------15-12h14----12------------------------------------|
|----12----------------x----------15----15p12----15p12---------------------|
|-14----14b16r12----12------------------------14-------14pb16r12----12-14--|
|----------------14----------------------------------------------14--------|
|--------------------------------------------------------------------------|
|--------------------------------------------------------------------------|


  E    E    E    E    E  E    E      E
|-----------------------------------------------------------------------|
|--------------------------------------0--------------------------------|
|--------------------0----------------------0---------------------------|
|-----------2-----------------2----------------------5------------4-----|
|--4-------------------------------------------------3------------2-----|
|----------------------------------------------------2------------2-----|
|
| |--------------------------------3--------------------------------|
| S S S S S S S S S S S S E E  S S E   E     E
|----------15----------17---------------------14h15-17b19-17pb19====17r-|
|-12h15p12----17p15-------17p15----18p17p15-----------------------------|
|-------------------16----------16--------------------------------------|
|-----------------------------------------------------------------------|
|-----------------------------------------------------------------------|
|-----------------------------------------------------------------------|


  E  E E    E    E    E    E     E
|----------------------------------------------------------------|
|----------------------------------------------------------------|
|----------------------------0-----------------------------------|
|----------2--------4-----------------4--------2----------0------|
|-------2--------------------------------------------------------|
|--0-------------------------------------------------------------|
|
|     |------------------------3-------------------------|
| Q    S S S S S S S S S S S S S S E    E
|-17b20------20-------15----15-------------------------------15--|
|---------20----20S17----17----17----------------17-15b17---(15)-|
|---------------------------------17----------17-----------------|
|------------------------------------17--------------------------|
|---------------------------------------19p17--------------------|
|----------------------------------------------------------------|


  E  S S E S S  q     E E
|--------------------------------------|
|--------------------------------------|
|--------------------------------------|
|--5--------5-------5----------5--4----|
|--3----3-3-3-3-3---3----------3--2----|
|------------------------------2--2----|
|
|          ~~~~
| H        +E  +E   E S S
|--------------------------------------|
|-15b17-----------(15)-(15)\-/17-19h20-|
|--------------------------------------|
|--------------------------------------|
|--------------------------------------|
|--------------------------------------|


  E   E E   E  E    E   E E
|-------------------------------------------|
|-----------------------0-------------------|
|------------0------------------0---------0-|
|---------2---------2------------------2----|
|---3---------------------------------------|
|-------------------------------------------|
|
|  |------------------3------------------|
| +H    E   E +Q   +Q   E E
|-------------------------------------------|
|-(20)b22---20pb22r19-(19)b21r(19)b21r17-17-|
|-------------------------------------------|
|-------------------------------------------|
|-------------------------------------------|
|-------------------------------------------|


  E  E E  E E   E E E
|------------------------------|
|------------------0-----------|
|----------0-------------0---0-|
|-------2-------2----------2---|
|--2---------------------------|
|------------------------------|
|
| Q    Q    H
|-20b22---20b22---20pb22r======|
|------------------------------|
|------------------------------|
|------------------------------|
|------------------------------|
|------------------------------|


  E   E  E    E   E   E    E   E
|---------------------------------------------------||
|---------------------------------------------------||
|-------------0-------------3-----0-----------------||
|---------0-----------0--------------------0-----0--||
|---1-----------------------------------------------||
|---------------------------------------------------||
|
|                 |--3--|
| +Q    +S  S S S E   S S S S S E
|-(20)b22r==(20)\----17----------17-----------------||
|-----------------17----17-20b22----20p17-----------||
|-----------------------------------------19p17-----||
|-----------------------------------------------19\-||
|---------------------------------------------------||
|---------------------------------------------------||


 Outro
 Gtr III
 E E E E E E E E  E E E E E E E E  E E E E E E E E  E E E E E E E E
|-----------------|-----------------|-----------------|-----------------|
|---------0-------|-----------------|-----------------|-----------------|
|-----0-----0-----|-----------------|-----------------|-----------------|
|---2---2-----2---|-----0-1---0-1---|-----0-1---0-1---|-----0-1---0-1---|
|-0-------------0-|---3-----3-----3-|---3-----3-----3-|---3-----3-----3-|
|-----------------|-4---------------|-3---------------|-2---------------|


 E E E E E E E E  E E E E E E E E  W     +H..    +E
|-----------------|-----------------|----------|-----------------*|
|-----------------|-----------------|----------|-----------------*|
|-----------------|---5-4-1---------|-5--------|-(5)--------(5)\-*|
|-----------------|---6-5-3-5-3-1-0-|-5--------|-(5)--------(5)\-*|
|-3-----2-5-2-6-3-|-5-------6-5-3-2-|-3--------|-(3)--------(3)\-*|
|-1-4-3-----------|-----------------|----------|-----------------*|



-


Duration Legend
---------------
W - whole; H - half; Q - quarter; E - 8th; S - 16th; T - 32nd; X - 64th; a - acciaccatura
+ - note tied to previous; . - note dotted; .. - note double dotted
Uncapitalized letters represent notes that are staccato (1/2 duration)
Irregular groupings are notated above the duration line
Duration letters will always appear directly above the note/fret number it represents the
duration for. Duration letters with no fret number below them represent rests. Multi-
bar rests are notated in the form Wxn, where n is the number of bars to rest for. Low
melody durations appear below the staff

Tablature Legend
----------------
 h  - hammer-on
 p  - pull-off
 b  - bend
 pb - pre-bend
 r  - bend release (if no number after the r, then release immediately)
 /\ - slide into or out of (from/to "nowhere")
 s  - legato slide
 S  - shift slide
<n> - natural harmonic
n: - artificial harmonic
n(n) - tapped harmonic
 ~  - vibrato
 tr - trill
 T  - tap
 TP - trem. picking
 PM - palm muting
\n/ - tremolo bar dip; n = amount to dip
 \n - tremolo bar down
 n/ - tremolo bar up
/n\ - tremolo bar inverted dip
 =  - hold bend; also acts as connecting device for hammers/pulls
 <> - volume swell (louder/softer)
 x  - on rhythm slash represents muted slash
 o  - on rhythm slash represents single note slash

Misc Legend
-----------
 | - bar
|| - double bar
||o - repeat start
o|| - repeat end
*| - double bar (ending)
 : - bar (freetime)
 $ - Segno
 & - Coda
Tempo markers - <E/E./Q/Q./H/H.> = BPM(8/16=s8/s16), where s8 = swing 8ths, s16 = swing 16ths

Almost there ...

Sign in to get your own page with links to favourite songs and more. You are just one click away...

Login with Facebook Login with Google