Search tabs and chords

Search for song, artist or band

Log in

One click and you are in

Login with Facebook Login with Google

Why sign up and log in

Guitar Tabs Explorer
Rammstein guitar chords for Das alte leid

Guitar chords

Rammstein
Album: Herzeleid



DROP D-TUNING
intro/chorus

E----------------------------------------------
B----------------------------------------------
G----------------------------------------------
D-2--4--2--4--2--4--2--4--7--2-----------------
A-2--4--2--4--2--4--2--4--7--2-----------------
D-2--4--2--4--2--4--2--4--7--2-----------------


verse

E----------------------------------------------
B----------------------------------------------
G----------------------------------------------
D-2-2---2-2-2-2---2-2---2-2-2-2----b5---------- (half step)
A-2-2---2-2-2-2---2-2---2-2-2-2----------------
D-2-2---2-2-2-2---2-2---2-2-2-2----------------



Tabbed by: Toch Kenneth
Mail to: kennethtoch@hotmail.com

Other versions of Das Alte Leid

Das alte leidTabs

Almost there ...

Sign in to get your own page with links to favourite songs and more. You are just one click away...

Login with Facebook Login with Google