Log in

One click and you are in

Login with Facebook Login with Google

Why sign up and log in

Guitar Tabs Explorer
Nirvana guitar tabs for Come as you are (Ver. 3)

Guitar tabs

Slightly Palm Mute Riff 1
Vibrate Solo


Tuning: Whole Step Down (A chord diagramD MajorD A chord diagramG+G A chord diagramC majorC A chord diagramFF A chord diagramA augmentedA A chord diagramD MajorD)

----|-------------------------------|--|-------------------------------|------|
----|-------------------------------|--|--------------------------5----|------|
----|-------------------------------|--|--------------------------4--2-|------|
----|-------------------------------|--|-----------------------------2-|------|
----|--------0---0---------2------2-|--|--------0---0---------2--------|------|
--0-|-0-1-2----2---2-2-1-0---0-0----|--|-0-1-2----2---2-2-1-0---0------|------|
  Verse/Intro                            Verse End

----|---------0-----------------|--|------------------------------------------|
----|---------5---------2---2---|--|------------------------------------------|
----|-2\0-----4---------2---2---|--|------------------------------------------|
----|-2\0-4-------4-2-2---2-----|--|------------------------------------------|
----|-----4-----------0---0-----|--|------------------------------------------|
----|---------------------------|--|------------------------------------------|
   Riff 1

----|---------0-------------------|-------|--------|--------------------------|
----|---------5---------2-x-2-2-2-|-------|--------|--------------------------|
----|-2\0-----4---------2-x-2-2-2-|-------|--------|--------------------------|
----|-2\0-4-------4-2-2---x-2-2-2-|-------|--------|--------------------------|
----|-----4-----------0-----0-0-0-|-------|--------|--------------------------|
----|-----------------------------|-------|--------|--------------------------|
   Riff 1 End                       Verse   Riff 1

----|---------0-----------------------|---------------------------------------|
----|---------5-------------------2---|---------------------------------------|
----|-2\0-----4-------2-2-2-2-2-2-2-0-|---------------------------------------|
----|-2\0-4-------4-2-2-2-2-2-2-2-2-0-|---------------------------------------|
----|-----4-----------------------0-0-|---------------------------------------|
----|---------------------------------|---------------------------------------|
   Riff 1 End

----|-------0---0-0-------------------|-------5-------------------------|--|--|
----|-----0-----0-0---3-3-3-3-3-3-3---|-----5-----------3-3-3-3-3-3-3---|--|--|
----|-4-4-------4-4-0-2-2-2-2-2-2-2-0-|-4-4-------4-4-0-2-2-2-2-2-2-2-0-|--|--|
----|-4-4-------4-4-0-0-0-0-0-0-0-0-0-|-4-4-------4-4-0-0-0-0-0-0-0-0-0-|--|--|
----|-2-2-------2-2-0---------------0-|-2-2-------2-2-0---------------0-|--|--|
----|---------------------------------|---------------------------------|--|--|
   Interlude

----|-------5----------------------|------------------------------------------|
----|-----5----------3-3-3-3-3-3-3-|------------------------------------------|
----|-4-4------4-4-0-2-2-2-2-2-2-2-|------------------------------------------|
----|-4-4------4-4-0-0-0-0-0-0-0-0-|------------------------------------------|
----|-2-2------2-2-0---------------|------------------------------------------|
----|------------------------------|------------------------------------------|
    Interlude End

---|-----|---------------------------------------------------------|--|------|
---|-2-2-|-2-2---5--7-7-2-2---5--7-7-2-2---5--7-7-9-9--9-9-7-7-5-5-|--|-2-2--|
---|-----|------------------------------------------11b------------|--|------|
---|-----|---------------------------------------------------------|2x|------|
---|-----|---------------------------------------------------------|--|------|
---|-----|---------------------------------------------------------|--|------|
    Solo

---|---0---------------|--------|---------------------------------------------|
---|---5---------2---2-|--------|---------------------------------------------|
---|---4---------2---2-|--------|---------------------------------------------|
---|-------4-2-2---2---|--------|---------------------------------------------|
---|-----------0---0---|--------|---------------------------------------------|
---|-------------------|--------|---------------------------------------------|
     iiiaaa              Riff 1

---|-------0--------------2--------|--|-------0--------------2---|-----------|
---|-----0----------3-3-3----3-3---|--|-----0----------3-3-3-----|-----------|
---|-4-4------4-4-0-2-2------2-2-0-|--|-4-4------4-4-0-2-2-------|-----------|
---|-4-4------4-4-0-0-0------0-0-0-|--|-4-4------4-4-0-0-0-------|-----------|
---|-2-2------2-2-0--------------0-|--|-2-2------2-2-0-----------|-----------|
---|-------------------------------|--|--------------------------|-----------|
    Interlude                           Interlude End             Intro riff

---|-----0------------|-------------------------------------------------------|
---|-----5------------|-------------------------------------------------------|
---|-----x------------|-------------------------------------------------------|
---|-----4------------|-------------------------------------------------------|
---|-----4------------|-------------------------------------------------------|
---|-0-0-2------------|-------------------------------------------------------|
    End

Other versions of Come As You Are

Come as you areChords
Come as you are (Ver. 2)Chords
Come as you are (Ver. 3)Chords
Come as you are (Ver. 4)Chords
Come as you are acousticChords
Come as you are ukuleleChords
Come as you areTabs
Come as you are (Ver. 2)Tabs
Come as you are (Ver. 4)Tabs
Come as you are - introTabs

Almost there ...

Sign in to get your own page with links to favourite songs and more. You are just one click away...

Login with Facebook Login with Google