Guitar Tabs Explorer
Rammstein guitar tabs for Du reichst so gut

Du Reichst So Gut tab


Be the first to rate

Du Reichst So Gut tab by Rammstein

Guitar tabs

Print
Intro
-------------------------------------------------------------------*play Harder
-------------------------------------------------------------------
-0----------------------------------0------------------------------
---1--0--1--1--1--0--1--1--1--0--1---------------------------------
x10

*Piano/singing*

Verse
-------------------------------------------------------------------
-------------------------------------------------------------------
-0----------------------------------0------------------------------
---1--0--1--1--1--0--1--1--1--0--1---------------------------------


*Piano\singing*

Verse
------------------------------------------------------------------- *Play lightly
-------------------------------------------------------------------
-------------------------------------------------------------------
---1--0--1--1--1--0--1--1--1--0--1---------------------------------



*piano sound*

Verse
-------------------------------------------------------
-------------------------------------------------------
-0----------------------------------0------------------
---1--0--1--1--1--0--1--1--1--0--1---------------------


*Piano\singing*
--5--3--1--
-----------
-----------
-----------

Verse
------------------------------------------------------------------- *Play lightly
-------------------------------------------------------------------
-------------------------------------------------------------------
---1--0--1--1--1--0--1--1--1--0--1---------------------------------


Solo

--13--13--13--13--12--12--12--13--11--11--11--11--12--11--12--11---
-------------------------------------------------------------------
-------------------------------------------------------------------
-------------------------------------------------------------------
x8

Verse
------------------------------------------------------------------- *Play lightly
-------------------------------------------------------------------
-------------------------------------------------------------------
---1--0--1--1--1--0--1--1--1--0--1---------------------------------


End.

Comment this song and these guitar tabs

Do you have corrections, comments on the guitar tabs, thoughts about the song or a message to the author? Write them below.