Log in

One click and you are in

Login with Facebook Login with Google

Why sign up and log in

Guitar Tabs Explorer
Pavement tabs for Shoot the singer

Guitar tabs

Shoot The Singer (1 Sick Verse)
tabbed by KM

Standard Tuning: I think it's played in a different tuning, but this is close enough
VERSE:
This is the basic outline; there's more picking/arpeggios involved. Of course, not
correct, but works with the melody well enough imo.
---------0-------------3---------|
-0-------3-------------3---------|
-0-------4-------------0---------|
-x-------2-------------0---------|
-2-------3-------------x---------|
-----------------------3---------|
Someone took in these pants

--------0-------------0----------------|
--------0-------------0----------------|
--------2-------------0----------------|
--------2-------------2----------------|
--------0-------------3----------------|
---------------------------------------|
Someone painted over paint


----------------7---5---3---------------------|
----------------8---3---3---------------------|
---------(0)----0---0---0---------------------|
---------(0)----------------------------------|
---------(x)----------------------------------|
---------(3)-------(3)------------------------|
Painted wood

END OF VERSE:
---0------------------0----------|
---3---3--------------0----------|
---0---0--------------0----------|
---0---0--------------2----------|
---2---2--------------2----------|
---3---3--------------0----------|


CHORUS:

-0--------------(0)------------------3------------------|
-3-------------------(3)---------3---0------------------|
-0-------------------------------0---0------------------|
-2-------------------------------0---2------------------|
-3-------------------------------x---2------------------|
-0-------------------------------3---0------------------|
   Well, I've seen saints, but remember


-----------0--------------3---------------0-----|
-----------0--------------0---------------0-----|
-----------0--------------0---------------2-----|
-----------2--------------0---------------2-----|
-----------3--------------2---------------0-----|
--------------------------3---------------------|
That I forgot to flag 'em down when they passed....

Repeat

CHORUS ends on A chord diagramG+G rather than A chord diagramAsus2Asus2


OUTRO:
------------------|---------------(1)--------------------|
---0--------------|--0------------(0)--------------------|
---0--------------|--0------------(0)--------------------|
---2--------------|--0-----------------------------------|
---3--------------|--2-----------------------------------|
---3--33333-------|--3--3333-----------------------------|

Almost there ...

Sign in to get your own page with links to favourite songs and more. You are just one click away...

Login with Facebook Login with Google