Log in

One click and you are in

Login with Facebook Login with Google

Why sign up and log in

Guitar Tabs Explorer
Pantera tabs for Floods

Guitar tabs with lyrics

Floods by Pantera

album: The Great Southern TrendKill

Track 9

transcribed by James Murdoch
not sure what effect boxes dimebag uses on this song, so i tried out the
old flanger and chorus effects with plenty of reverb :) gives it a nice
vintage sound. Tune down to A chord diagramC#C#

🏷Legend

/ = slide up
\ = slide down
b = bend without changing fret
>= bend up
< = release bend
^ = hammer on or pull off
p = pull off
h = hammer on
~ = vibrato

🏷Legend might seem a little complicating, but you'll understand it later


			repeat
e-----------------------------------------------------------------------|
b-----------------------------------------------------------------------|
g---------0---------------0---------------------------------------------|
d-------6---6---------6-----6-------------------------------------------|
a-----7-------------7---7-----7-----------------------------------------|
E--9-----------8----------------8---------------------------------------|


e-----------------------------------------------------------------------|
b-----------------------------------------------------------------------|
g-----------------------------------------------------------------------|
d------------2------0---2-----------------------------------------------|
a----------2------2-----2-----------------------------------------------|
E---0---4-------3-------0-----------------------------------------------|


			     .......
e-------------0--0-0--0-0-------2--2--4---------------------------------|
b--0---0-0----0--1-1--0-0-------5--5--7---------------------------------|
g--8---8-8----4--4-4--4-4-------4--4--6---------------------------------|
d--6---6-6----2--2-2--2-2-----------------------------2------0--2-------|
a--7---7-7----0--0-0--0-0---------------------------2-------2---2-------|
E--9---9-9--------------------0--------------0---4--------3-----0-------|


interlude 'extinguishing the soul..'(sun )
e----2--2--4--4--4--4--5--5---------------------------------------------|
b----5--5--7--7--7--7--7--7----7--7--9--9----5--5--5--7--5---4----------|
g----4--4--6--6--6--6--6--6----6--6--6--6----6--6--6--6--6---4----------|
d--------------------------------------------7--7--7--7--7---4----------|
a-----------------------------------------------------------------------|
E--0--------------------------------------------------------------------|


flood, flood...
repeat the parts to sound right				       hold..
e-----------------------------------------------------------------------|
b-----------------------------------------------------------------------|
g-----------------------------------------------------------------------|
d---4-/-5-\-4---4/5-4---4-5-6-6-------2-/5--2---2-3-4-5--2-4-5-4--------|
a---4-/-5-\-4---4/5-4---4-5-6-6-------2-/5--2---2-3-4-5--2-4-5-4--------|
E---2-/-3-\-2---2/3-2---2-3-4-5-------0-/3--0---0-1-2-3--0-2-3-2--------|



calm part...before solo (clean)
e----------------------------------------------------------0------------|
b-----------0------------------1------------------0--------0------------|
g--------8-----8------------4-----0------------8-----8-----5------------|
d-----------6------------2------------------------6--------2------------|
a-----7---------------0--------------------7---------------0------------|
E--9------------------------------------9-------------------------------|



solo
		  b     h p p h
e-----------------------------------------------------------------------|
b-----------------------------------------------------------------------|
g----------8----8>9<8--6^8^6^4^6----------------------------------------|
d-------6----6------------------------------9-----9-/-13-14-13-11-------|
a----4-----------------------------------7-----7------------------------|
E-------------------------------------5---------------------------------|


		  b     h p p h                    b     h p p h b
e-----------------------------------------------------------------------|
b-----------------------------------------------------------------------|
g------------------------------------------6-----6>7<6--4^6^4^2^4>5-----|
d---------6-----6>7<6--4^6^4^2^4--------4-----4-------------------------|
a------4-----4-----------------------2----------------------------------|
E---2-------------------------------------------------------------------|


next parts difficult to explain so heres a highlite :P
e-----------------------------------------------------------------------|
b-----------------------------------------------------------------------|
g----9---9--9-\-8--8-8-\-6--6-6-\-5--5-5-5-/6\5-------------------------|
d---11--11-11-\-9--9-9-\-7--7-7-\-6--6-6-6-/7\6---2-2-2--4--2~~~--------|
a-----------------------------------------------------------------------|
E-----------------------------------------------------------------------|


the rest is up to you!


any one got any dimebag solos or riffs you want to send me? hard lines,
sunken cheeks solo? problems with the tab?
email me

chorusjammed@hotmail.com

Other versions of Floods

Floods longTabs
Floods outro soloTabs

Almost there ...

Sign in to get your own page with links to favourite songs and more. You are just one click away...

Login with Facebook Login with Google