Search tabs and chords

Browse bands and artists

A B C D E F G H I J K L M N O P Q R S T U V W X Y Z #

Log in

[ Register here | Forgot password ]

Guitar Tabs Explorer
Print

Bass tabs :

The Walk bass tab by The Cure (Ver. 2)

Tabbed by: bassm99
E-mail: alanmatthews1966@yahoo.co.uk

Tuning: E, A, D, G

Bass Starts: 0:02

Intro
G|--------------------------------------------------------------------------|
D|----7----7-----5----5-----2----2----2----2--------------------------------|
A|--------------------------------------------------------------------------|
E|--5----5-----3----3-----0----0----0----0----(x3)--------------------------|

G|----5----5-----7----7-----------------------------------------------------|
D|--------------------------2----2----2---2---------------------------------|
A|--3----3-----5----5-------------------------------------------------------|
E|------------------------0----0----0----0----(x1)--------------------------|

Verse: (Play Twice)

G|--------------------------------------------------------------------------|
D|----7----7-----5----5-----2----2----2----2--------------------------------|
A|--------------------------------------------------------------------------|
E|--5----5-----3----3-----0----0----0----0----(x3)--------------------------|

G|----5----5-----7----7-----------------------------------------------------|
D|--------------------------2----2----2---2---------------------------------|
A|--3----3-----5----5-------------------------------------------------------|
E|------------------------0----0----0----0----(x1)--------------------------|

Instrumental
G|--------------------------------------------------------------------------|
D|----7----7-----5----5-----2----2----2----2--------------------------------|
A|--------------------------------------------------------------------------|
E|--5----5-----3----3-----0----0----0----0----(x3)--------------------------|

G|----5----5-----7----7-----------------------------------------------------|
D|--------------------------2----2----2---2---------------------------------|
A|--3----3-----5----5-------------------------------------------------------|
E|------------------------0----0----0----0----(x1)--------------------------|

Repeat Verse: (Play Twice)

Repeat Instrumental:

Synth Solo:

G|--------------------------------------------------------------------------|
D|----7----7-----5----5-----2----2----2----2--------------------------------|
A|--------------------------------------------------------------------------|
E|--5----5-----3----3-----0----0----0----0----(x3)--------------------------|

G|----5----5-----7----7-----------------------------------------------------|
D|--------------------------2----2----2---2---------------------------------|
A|--3----3-----5----5-------------------------------------------------------|
E|------------------------0----0----0----0----(x1)--------------------------|

Repeat Verse: (Play Once)

Bridge
G|----5----5----5----5-----4----4----4--------------------------------------|
D|--------------------------------------------------------------------------|
A|--3----3----3----3-----2----2----2----2--0--(x2)--------------------------|
E|--------------------------------------------------------------------------|

G|--------------------------------------------------------------------------|
D|----5----5-----7----7-----2----2----2----2--------------------------------|
A|--------------------------------------------------------------------------|
E|--3----3-----5----5-----0----0----0----0----(x2)--------------------------|

G|--------------------------------------------------------------------------|
D|----7----7-----5----5-----2----2----2----2--------------------------------|
A|--------------------------------------------------------------------------|
E|--5----5-----3----3-----0----0----0----0----(x3)--------------------------|

G|----5----5-----7----7-----------------------------------------------------|
D|--------------------------2----2----2---2---------------------------------|
A|--3----3-----5----5-------------------------------------------------------|
E|------------------------0----0----0----0----(x1)--------------------------|

Synth Solo/End:

G|--------------------------------------------------------------------------|
D|----7----7-----5----5-----2----2----2----2--------------------------------|
A|--------------------------------------------------------------------------|
E|--5----5-----3----3-----0----0----0----0----(x3)--------------------------|

G|----5----5-----7----7-----------------------------------------------------|
D|--------------------------2----2----2---2---------------------------------|
A|--3----3-----5----5-------------------------------------------------------|
E|------------------------0----0----0----0----(x1)--------------------------|

G|--------------------------------------------------------------------------|
D|----7----7-----5----5-----2----2----2----2--------------------------------|
A|--------------------------------------------------------------------------|
E|--5----5-----3----3-----0----0----0----0----(x3)--------------------------|

G|----5----5-----7----7-----------------------------------------------------|
D|--------------------------2----2------------------------------------------|
A|--3----3-----5----5-------------------------------------------------------|
E|------------------------0----0----0--(x1)---------------------------------|

`The Walk` from the single `The Walk` (1983). Written by Smith/Tolhurst.

Other versions of The Walk

- The walkBass tabs

Comments

The Cure bass tabs for The walk (Ver. 2)