Guitar Tabs Explorer
Nickelback bass tabs for Fight for all the wrong reasons

Fight For All The Wrong Reasons bass tab


Be the first to rate

Jamplay guitar lessons

Fight For All The Wrong Reasons bass tab by Nickelback

Bass tabs

Print

Tabbed By Bass Pants

Chorus
G|------------------------------------------------|
D|-------6----------5--------------5h7p5h7/8\7p5--|
A|----------5-6-5-6---6-5--------5----------------| 2x
D|-0-000-------------------5-555------------------|

Verse
G|--------------------------------------|
D|--------------------------------------|
A|----------00000000-33333333-66666666--| 6x
D|-00000000-----------------------------|

Pre Chorus
G|--------------|
D|--------------|
A|--------------|
D|-00-00-55-55--|

Chorus 4x
Verse 6x
Pre Chorus
Chorus 4x

Bridge
G|-----------------------------|
D|-----------------------------|
A|-----------------------------|
D|-00-00--55-55--00-00--55-55--|

G|--------------------------------------|
D|--------------------------------------|
A|--------------------------------9h10--| 2x
D|-00-00--55-55--00-00--55-55--00-------|

Rest

G|----------------------------------------|
D|----------------------------------------|
A|----9h10----10h12-------------10/12\10--| 2x
D|-00------00-------00-10h12-00-----------|

G|-----------------------------|
D|-----------------------------|
A|-----------------------------|
D|-00-00--55-55--00-00--55-55--|

Rest
Pre Chorus
Chorus 4x

End
G|-----------------------------------------------------|
D|-----------------------------------------------------|
A|--10h12p10\9--10h12p10\9--10h12p10\9--10h12p10\9-----|
D|--------------------------------------------------0--|

Comment this song and these bass tabs

Do you have corrections, comments on the bass tabs, thoughts about the song or a message to the author? Write them below.