Log in

One click and you are in

Login with Facebook Login with Google

Why sign up and log in

Guitar Tabs Explorer
Wallows bass tabs for Ice cold pool

Bass tabs

Tuning: Standard (E A D G)


Intro:

G|---------------------------------------|
D|-----------------5---------------------| 2x
A|---0-2-5-7---5-7---7-5-----------------|
E|-3-------------------------------------|
Verse 1:

G|-----------------4-2-2-----------------|
D|---------------2-----------------------| 4x
A|---2-5-3-2---3-------------------------|
E|-3-------------------------------------|


Pre-chorus:

G|-----------------4-2-2-----------------|
D|---------------2-----------------------| 4x
A|---2-5-3-2---3-------------------------|
E|-3-------------------------------------|


Chorus:

G|--------------------------------------------------|
D|--------------------------------------------------| 2x
A|-----------------2-1-0-0-0-0----------------------|
E|-3-3-3-3-2-0-0-0-------------1-2-2-2-2------------|


Interlude:

G|---------------------------------------|
D|-----------------5---------------------| 2x
A|---0-2-5-7---5-7---7-5-----------------|
E|-3-------------------------------------|

Verse 2:

G|---------------------------------------|
D|---------------------------------------| 4x
A|-----------------3-3-3-3-3-3-3-3-------|
E|-3-3-3-3-3-3-3-3-----------------------|


Pre-chorus:

G|-----------------4-2-2-----------------|
D|---------------2-----------------------| 4x
A|---2-5-3-2---3-------------------------|
E|-3-------------------------------------|

Interlude: - i'm not sure about this part
(first only guitar)
G|-----------------------------------------------------------|
D|-----------------------------------------------------------|
A|-----------------------------------------------------------|
E|-3/5-5/7-7/8-8/10-10/12-12/13-13/15---15\------------------|


Chorus:

G|--------------------------------------------------|
D|--------------------------------------------------| 2x
A|-----------------2-1-0-0-0-0----------------------|
E|-3-3-3-3-2-0-0-0-------------1-2-2-2-2------------|


bridge: - first only guitar then play interlude


Chorus:

G|--------------------------------------------------|
D|--------------------------------------------------| 6x
A|-----------------2-1-0-0-0-0----------------------|
E|-3-3-3-3-2-0-0-0-------------1-2-2-2-2------------|


[Outro}
G|-------------------------------|
D|-------------------------------|
A|---0-2-5-3-3-3-3-0-0-0-2-------|
E|-3-----------------------------|
************************************


| /  Slide up
| \  Slide down
| ~  Vibrato


************************************

Almost there ...

Sign in to get your own page with links to favourite songs and more. You are just one click away...

Login with Facebook Login with Google