Log in

One click and you are in

Login with Facebook Login with Google

Why sign up and log in

Guitar Tabs Explorer
Muse tabs for Overdue

Guitar tabs

Tabbed by:	Tom Woollan

Title:	Overdue
Album:	Showbiz

**This is all my own work**
Intro.

|-0-0-0-0-0-0-0-0|----------------|----------------|----------------|
|-2-2-2-2-3-1-0-2|----------------|----------------|----------------|
|-0-0-0-0-0-0-0-0|----------------|-------7-7-7-5--|-6b7r6----------|
|-2-2-2-2-2-2-2-2|----------------|---------------7|----------------|
|-0-0-0-0-0-0-0-0|----------------|-7-7-7----------|------------x-x-|
|----------------|----------------|-5-5-5----------|------------x-x-|


|----------------|----------------|----------------|----------------|
|----------------|----------------|----------------|----------------|
|-------7-7-7-5--|-6b7r6---6b7r6b7|-------7-7-7-5--|-6b7r6----------|
|---------------7|----------------|---------------7|----------------|
|-7-7-7----------|----------------|-7-7-7----------|------------x-x-|
|-5-5-5----------|----------------|-5-5-5----------|------------x-x-|


|----------------|----------------|
|----------------|----------------|
|-------7-7-7-5--|-7--------------|
|---------------7|-7--------------|
|-7-7-7----------|-5--------------|
|-5-5-5----------|----------------|


Verse
|----------------|----------------|----------------|----------------|
|---------1------|---------1------|---------1------|---------1------|
|-----2----------|-----2----------|-----2-----2---2|-----2-----2---2|
|---3---3--------|---3---3--------|---3---3-----3--|---2---2-----2--|
|----------------|----------------|----------------|----------------|
|----------------|----------------|----------------|----------------|

|----------------|----------------|----------------|----------------|
|---------1------|---5-5-3---1----|---------1------|---------1------|
|-----2-----2---2|---5-5-4---2----|-----2-----2---2|-----2-----2---2|
|---3---3-----3--|----------------|---3---3-----3--|---2---2-----2--|
|----------------|----------------|----------------|----------------|
|----------------|----------------|----------------|----------------|


|---------1------|----------------|----------------|---------------0|
|-----------1----|----------------|----------------|---------------0|
|-----2-------2--|---5-5-4---2----|---2-2-----2-2-2|-------2-2-2-2-2|
|---3---3-------3|---7-7-5---4----|---3-3-----3-3-3|-------3-3-3-3-3|
|----------------|---7-7-5---4----|---3-3-x-x-3-3-3|x-x-x-x3-3-3-3-3|
|----------------|---5-5-4---2----|---1-1-x-x-1-1-1|x-x-x-x1-1-1-1-1|


|----------------|---------0------|
|-----1-----1----|-----0----------|
|---2-----2---2--|---1---1--------|
|-3-----3-------3|-2--------------|
|----------------|----------------|
|----------------|----------------|


Chorus
|----------------|----------------|----------------|----------------|
|----------------|----------------|----------------|----------------|
|----------------|----------------|----------------|----------------|
|-------5-5-5--7-|-7---7----------|-5-5-5--7--7---7|-------5-5-5--7-|
|-7--7--3-3-3--5-|-5---5-----7--7-|-3-3-3--5--5---5|-7--7--3-3-3--5-|
|-5--5-----------|-----------5--5-|----------------|-5--5-----------|


|----------------|----------------|
|----------------|----------------|
|----------------|----------------|
|-7---7----------|-5-5-5--7--7---7|
|-5---5-----7--7-|-3-3-3--5--5---5|
|-----------5--5-|----------------|


Verse 2
|----------------|----------------|----------------|----------------|
|---------1------|---------1------|---------1------|---------1------|
|-----2-----2---2|-----2-----2---2|-----2-----2---2|-----2-----2---2|
|---3---3-----3--|---3---3-----3--|---3---3-----3--|---2---2-----2--|
|----------------|----------------|----------------|----------------|
|----------------|----------------|----------------|----------------|


|---------1------|----------------|---------1------|---------0------|
|-----------1----|---5-5-3---1h3p1|----------------|---------------1|
|-----2-------2--|---5-5-4---2----|-----2-----2---2|-----2-----2----|
|---3---3-------3|----------------|---3---3-----3--|---2---2-----2--|
|----------------|----------------|----------------|----------------|
|----------------|----------------|----------------|----------------|


|---------1------|----------------|----------------|---------------0|
|-----------1----|----------------|----------------|---------------0|
|-----2-------2--|---5-5-4---2----|---2-2-----2-2-2|-------2-2-2-2-2|
|---3---3-------3|---7-7-5---4----|---3-3-----3-3-3|-------3-3-3-3-3|
|----------------|---7-7-5---4----|---3-3-x-x-3-3-3|x-x-x-x3-3-3-3-3|
|----------------|---5-5-4---2----|---1-1-x-x-1-1-1|x-x-x-x1-1-1-1-1|


|----------------|---------0------|
|-----1-----1----|-----0----------|
|---2-----2---2--|---1---1--------|
|-3-----3-------3|-2--------------|
|----------------|----------------|
|----------------|----------------|

Guitar 1: Repeat Chorus 3 times
Over the last 2 times, Guitar 2:
|-------------------14-|-14---14--------------|-----------15--14--14|
|-14--14---15-15-15-15-|-15---15-------14--14-|--15-15-15-15--15--15|
|-14--14---14-14-14----|---------------14--14-|--14-14-14-----------|
|----------------------|----------------------|---------------------|
|----------------------|----------------------|---------------------|
|----------------------|----------------------|---------------------|


|-------------------14-|-14---14--------------|-----------15--14--14|
|-14--14---15-15-15-15-|-15---15-------14--14-|--15-15-15-15--15--15|
|-14--14---14-14-14----|---------------14--14-|--14-14-14-----------|
|----------------------|----------------------|---------------------|
|----------------------|----------------------|---------------------|
|----------------------|----------------------|---------------------|


|-------------------14-|-14---14--------------|-----------15--14--14|
|-14--14---15-15-15-15-|-15---15-------14--14-|--15-15-15-15--15--15|
|-14--14---14-14-14----|---------------14--14-|--14-14-14-----------|
|----------------------|----------------------|---------------------|
|----------------------|----------------------|---------------------|
|----------------------|----------------------|---------------------|


|-------------------14-|-14---14--------------|-----------15--14----|
|-14--14---15-15-15-15-|-15---15-------14--14-|--15-15-15-15--15----|
|-14--14---14-14-14----|---------------14--14-|--14-14-14-----------|
|----------------------|----------------------|---------------------|
|----------------------|----------------------|---------------------|
|----------------------|----------------------|---------------------|

Other versions of Overdue

OverdueChords

Almost there ...

Sign in to get your own page with links to favourite songs and more. You are just one click away...

Login with Facebook Login with Google