Search tabs and chords

Search for song, artist or band

Log in

One click and you are in

Login with Facebook Login with Google

Why sign up and log in

Guitar Tabs Explorer
Korn guitar tabs for Eaten up inside

Guitar tabs with lyrics

-------------------------------------------------------------------------------
			     Eaten Up Inside - Korn
-------------------------------------------------------------------------------
Tabbed by: FRr3AkOnALEaSh

Tuning: A chord diagramAA D chord diagramDD G chord diagramGG C chord diagramCC F chord diagramFF a d

Intro
D|---------------------------------------------------------------------------|
A|---------------------------------------------------------------------------|
F| chord diagramF|F|---------------------------------------------------------------------------|
C| chord diagramC|C|---------------------------------------------------------------------------|
G|--2---2---2-2-2---2-2-2---5------------------------------------------------|
D|--0---0---0-0-0---0-0-0---3--6---------------------------------------------|
A|-----------------------------4---------------------------------------------|

D|---------------------------------------------------------------------------|
A|---------------------------------------------------------------------------|
F| chord diagramF|F|---------------------------------------------------------------------------|
C| chord diagramC|C|---------------------------------------------------------------------------|
G|--2---2---2-2-2---3-3-3---4-4-4--------------------------------------------|
D|--0---0---0-0-0---1-1-1---2-2-2--------------------------------------------|
A|---------------------------------------------------------------------------|

Verse
D|--------------------------10-6---------------------------------------------|
A|--------------------------x--x---------------------------------------------|
F| chord diagramF|F|--------------------------7--3---------------------------------------------|
C| chord diagramC|C|---------------------------------------------------------------------------|
G|--2---2---2-2-2---3-3-3----------------------------------------------------|
D|--0---0---0-0-0---1-1-1----------------------------------------------------|
A|---------------------------------------------------------------------------|

D|---------------------------------------------------------------------------|
A|---------------------------------------------------------------------------|
F| chord diagramF|F|---------------------------------------------------------------------------|
C| chord diagramC|C|---------------------------------------------------------------------------|
G|--2---2---2-2-2---3-3-3---4-4-4--------------------------------------------|
D|--0---0---0-0-0---1-1-1---2-2-2--------------------------------------------|
A|---------------------------------------------------------------------------|

Pre-Chorus
D|---------------------------------------------------------------------------|
A|---------------------------------------------------------------------------|
F| chord diagramF|F|--5---5---5---5---5---5---5---5---8---8---8---8---9---9---11--11-----------|
C| chord diagramC|C|--x---x---x---x---x---x---x---x---x---x---x---x---x---x---x---x------------|
G|--3---3---3---3---3---3---3---3---6---6---6---6---7---7---9---9------------|
D|---------------------------------------------------------------------------|
A|---------------------------------------------------------------------------|

D|---------------------------------------------------------------------------|
A|---------------------------------------------------------------------------|
F| chord diagramF|F|--5---5---5---5---5---5---5---5---8---8---8---8----------------------------|
C| chord diagramC|C|--x---x---x---x---x---x---x---x---x---x---x---x----------------------------|
G|--3---3---3---3---3---3---3---3---6---6---6---6----------------------------|
D|---------------------------------------------------------------------------|
A|---------------------------------------------------------------------------|

Chorus
D|---------------------------------------------------------------------------|
A|---------------------------------------------------------------------------|
F| chord diagramF|F|---------------------------------------------------------------------------|
C| chord diagramC|C|---------------------------------------------------------------------------|
G|---------------------------------------------------------------------------|
D|---------------------------------------------------------------------------|
A|--2-1-0---2-0-2-5---2-0---2-0-2-5---2-0---2-0-2-5---2-1---1-0--------------|

D|---------------------------------------------------------------------------|
A|---------------------------------------------------------------------------|
F| chord diagramF|F|---------------------------------------------------------------------------|
C| chord diagramC|C|---------------------------------------------------------------------------|
G|---------------------------------------------------------------------------|
D|---------------------------------------------------------------------------|
A|--2-1-0---2-0-2-5---2-0---2-0-2-5---2-0---2-0-2-5---2-1---0-0-0------------|

D|---------------------------------------------------------------------------|
A|---------------------------------------------------------------------------|
F| chord diagramF|F|---------------------------------------------------------------------------|
C| chord diagramC|C|--------------8\7---7\6---6\5--5-------------------------------------------|
G|--8\7---7\6---6\5---5\6---4\3--3-------------------------------------------|
D|--6\5---5\4----------------------------------------------------------------|
A|---------------------------------------------------------------------------|

Bridge
D|---------------------------------------------------------------------------|
A|---------------------------------------------------------------------------|
F| chord diagramF|F|---------------------------------------------------------------------------|
C| chord diagramC|C|---------------------------------------------------------------------------|
G|---------------------------------------------------------------------------|
D|---------------------------------------------------------------------------|
A|--2-0-2-2-2-2---0-2-0-2-2-2-2----------------------------------------------|

D|---------------------------------------------------------------------------|
A|---------------------------------------------------------------------------|
F| chord diagramF|F|---------------------------------------------------------------------------|
C| chord diagramC|C|---------------------------------------------------------------------------|
G|---------------------------------------------------------------------------|
D|---------------------------------------------------------------------------|
A|--2-0-2-2-2-2---0-2-0-2-2-2-2---0-2-0-2-2-2-2------------------------------|

(Note: After playing this part, repeat the whole bridge once again)
D|---------------------------------------------------------------------------|
A|---------------------------------------------------------------------------|
F| chord diagramF|F|---------------------------------------------------------------------------|
C| chord diagramC|C|--8---8---7---6------------------------------------------------------------|
G|--x---x---x---x------------------------------------------------------------|
D|--6---6---5---4------------------------------------------------------------|
A|---------------------------------------------------------------------------|

Outro
D|---------------------------------------------------------------------------|
A|---------------------------------------------------------------------------|
F| chord diagramF|F|---------------------------------------------------------------------------|
C| chord diagramC|C|--------------8\7---7\6---6\5--5-------------------------------------------|
G|--8\7---7\6---6\5---5\6---4\3--3-------------------------------------------|
D|--6\5---5\4----------------------------------------------------------------|
A|---------------------------------------------------------------------------|

D|---------------------------------------------------------------------------|
A|---------------------------------------------------------------------------|
F| chord diagramF|F|---------------------------------------------------------------------------|
C| chord diagramC|C|--7\6\5--------------------------------------------------------------------|
G|--5\4\3--------------------------------------------------------------------|
D|---------------------------------------------------------------------------|
A|---------------------------------------------------------------------------|

Well there you have it, a very accurate tab. This is so far my second tab
submission all learned by ear. I couldnt make out the very ending of this
song with all the fuzzy effects. I'm pretty sure its just an open riff
of the D chord diagramDD string, but cant be sure. If you guys have any problems or
corrections, please feel free to email me (Email address at top of page)

Peace!

************************************

| /   slide up
| \   slide down
| h   hammer-on
| p   pull-off
| ~   vibrato
| +   harmonic
| x   Mute note
| b   Bend
| pb  Pre-bend
| br  Bend release
| pbr Pre-bend release
| brb Bend release bend

************************************

Almost there ...

Sign in to get your own page with links to favourite songs and more. You are just one click away...

Login with Facebook Login with Google