Log in

One click and you are in

Login with Facebook Login with Google

Why sign up and log in

Guitar Tabs Explorer
Audioslave bass tabs for Dandelion

Bass tabs

Standard Tuning (E,A,D,G)


Intro

G|-----------------|-----------------------|
D|-----------------|-----------------------|
A|----(guitar)-----|------5~--5h7~--5~-557-|
E|-----------------|--5~-------------------|
Verse 1

G|-----------------------|------------------------|
D|-----------------------|------------------------|
A|------5~--5h7~--5~-557-|------5~-----------5----|
E|--5~-------------------|--5~-----0--0-3--3----0-|

G|-----------------------------|--------------------------------------------------|
D|-----/7~----/7~----/7~----/7-|--7h9-9/11~-7-7--77--7/9~-7-7--77-----------------|
A|---------5~-----7~-----5~----|---------------------------------------------5----|
E|--5~-------------------------|5--------------5---5---------5---5-0--0-3--3----0-|


Chorus

G|--------------|--------------|-----------------|--------------|--------------|
D|--------------|--------------|-----------------|--------------|--------------|
A|-55555--55-55-|-7777----7-7--|-----------------|-55555--55-55-|-7777----7-7--|
E|--------------|-----0--0---0-|-2-2-2-2-2-2-2-2-|--------------|-----0--0---0-|
                    x4
G|-----------------|--------------------||---|
D|*-----------------|------------------*||---|
A|*-----------------|-----------5---5--*||---|
E|-2-2-2-2-2-2-2-2-|-0-0-0-0-00--00-----||2~-|

Verse 2

G|------------------------------------------------------------------------------------------------|
D|-----/7-7--7-----/7-7--7-----/7-7--7-----/7-7--7-7/9-9/11-7-7--7-----7-7--7-7/9-----------------|
A|--------------5~----------7~----------5~--------------------------/9----------------------5-5---|
E|--5~-----5--5--------5--5--------5--5--------5--5------------5--5-------5--5----0--0-3--3-----0-|

G|------------------------------------------------------------------------|
D|-----/7~------/7~------/7~------/7~-7h9-9/11-9-7---7-7h9----------------|
A|-----------5~-------7~-------5~------------------9-----------------5----|
E|--5~-----5--------5--------5-----------------------------0--0-3--3----0-|


Chorus


Bridge/solo

G|-------------|-----------------|-------------|--------------------------|
D|-------------|-----------------|-------------|--------------------------|
A|-33333-------|-3---5--75--7575-|-33333-------|-3---5-75--3---5--75--3---|
E|-------33333-|---3-------------|-------33333-|---3---------3----------3-|
                 x3
G|--------------|------------------||-------------|----------------|-----------------|
D|*-------------|-----------------*||-------------|----------------|-----------------|
A|*-33333-------|-3---5--75--7575-*||-33333-------|-3---5--75--3---|-----------------|
E|--------33333-|---3--------------||-------33333-|---3----------3-|-0-0-0-0-0-0-0-0-|

Rest


Outro Chorus
G|-----------------|--------------|--------------|-----------------|
D|-----------------|--------------|--------------|-----------------|
A|-----------------|-55555--55-55-|-7777----7-7--|-----------------|
E|-2-2-2-2-2-2-2-2-|--------------|-----0--0---0-|-2-2-2-2-2-2-2-2-|
                                     x4
G|-----------------|-----------------|-----------------|------------------|
D|-----------------|-----------------|*----------------|-----------------*|
A|/9-9-9-9-9-9-9-9-|-----------5---5-|*----------------|-----------5---5-*|
E|-----------------|-0-0-0-0-00--00--|-2-2-2-2-2-2-2-2-|-0-0-0-0-00--00---|

G|-----------------|--------------|
D|-----------------|--------------|
A|-----------------|-----------5~-|
E|-2-2-2-2-2-2-2-2-|-0-0-0-0-0----| end on open E|0|

I did this completely by ear... I think it's pretty close to perfect...rate please

Almost there ...

Sign in to get your own page with links to favourite songs and more. You are just one click away...

Login with Facebook Login with Google