Log in

One click and you are in

Login with Facebook Login with Google

Why sign up and log in

Guitar Tabs Explorer
M Craft guitar tabs for Snowbird

Guitar tabs

Tuning: EADGBE
The strumming pattern's how I play it, just an example! Use the chords however you want,
questions email me!


Intro / Verses

E|-----0-0--0-0-0----0-0--0-0-0----0-0--0-0-0----0-0--0-0-0--|
B|-----0-0--0-0-0----0-0--0-0-0----0-0--0-0-0----1-1--1-1-1--|
G|-----0-0--0-0-0----2-2--2-2-2----0-0--0-0-0----2-2--2-2-2--|
D|-----2-2--2-2-2----2-2--2-2-2----2-2--2-2-2----2-2--2-2-2--| repeat
A|-----2-2--2-2-2----2-2--2-2-2----2-2--2-2-2--0-------------|
E|--0--------------1-------------3---------------------------|

Chorus

E|-----------------------------------------------0-0--0-0-0--|
B|----3-3--3-3-3----3-3--3-3-3-----3-3--3-3-3----0-0--0-0-0--|
G|----4-4--4-4-4----4-4--4-4-4-----4-4--4-4-4----0-0--0-0-0--|
D|----4-4--4-4-4----4-4--4-4-4-----4-4--4-4-4--2-2-2--2-2-2--|
A|--2-2-2--2-2-2--3-3-3--3-3-3--5--5-5--5-5-5----------------|
E|-----------------------------------------------------------|

E|-----------------------------------------------0-0--0-0-0--|
B|----3-3--3-3-3----3-3--3-3-3-----3-3--3-3-3----0-0--0-0-0--|
G|----4-4--4-4-4----4-4--4-4-4-----4-4--4-4-4----0-0--0-0-0--|
D|----4-4--4-4-4----4-4--4-4-4-----4-4--4-4-4--2-2-2--2-2-2--|
A|--2-2-2--2-2-2--3-3-3--3-3-3--5--5-5--5-5-5----------------|
E|-----------------------------------------------------------|

E|----0-0--0-0-0----0-0--0-0-0----0-0--0-0-0----0-0--0-0-0--|
B|----1-1--1-1-1----1-1--1-1-1----1-1--1-1-1----1-1 -1-1-1--|
G|----2-2--2-2-2----2-2--2-2-2----2-2--2-2-2----2-2--2-2-2--|
D|----2-2--2-2-2----2-2--2-2-2----2-2--2-2-2----2-2--2-2-2--|
A|--0-------------1-------------0-------------1-------------|
E|----------------------------------------------------------|

Repeat as necessary

Almost there ...

Sign in to get your own page with links to favourite songs and more. You are just one click away...

Login with Facebook Login with Google