Log in

One click and you are in

Login with Facebook Login with Google

Why sign up and log in

Guitar Tabs Explorer
Incubus tabs for Megalomaniac1

Guitar tabs

Title: Megalomaniac
Tabbed By: Vicmar “Jugmot” Saputalo
Date/Time: Jan. 4, 2005 and 12:46


   Try nyo tab ko astig to?


Intro :

e ---------------------------------------------------------
A chord diagramBB --------------------------------------------------------
A chord diagramG+G --------0---0---0---0---0---0---0---0---0---0------
D---------5---5---5---5---5---5---5---5---5---5------
A---------------------------------------------------------
A chord diagramE MajorE ---------------------------------------------------------


e-----------------------------------------------------------
B----------------------------------------------------------
G----------------------------------------------------------
D-----------4\5---8-8-8-8-8-----------------------------      4x
A------------------------------5-5-5-6-6-6--------------
E----------------------------------------------------------


Chorus :
e-----------------------------------------------------------
B----------------------------------------------------------
G------------------8-------5------------------------------
D----5------8-----8-------5------------------------------        4x
A----5------8-----6-------3------------------------------
E----3------6---------------------------------------------


Verse :
e----------------------------------------------------------
B------------------4--------------------------------------
G----------------------5----------------------------------
D--------3\5----------------------------------------------
A---------------------------------------------------------
E---------------------------------------------------------
e-------------------------*---------------------------------
B--------------6---------*-------------8---6--------------
G--------5----------7---*----------8----------------------
D----5-------------------*-------8------------------------      4x
A--3---------------------*----6---------------------------
E-------------------------*--------------------------------



Kung may sabit add nyo na lang me sa friendster nyo jugmot@yahoo.com thanks sa wala!

Other versions of Megalomaniac1

MegalomaniacChords
MegalomaniacTabs

Almost there ...

Sign in to get your own page with links to favourite songs and more. You are just one click away...

Login with Facebook Login with Google