Log in

One click and you are in

Login with Facebook Login with Google

Why sign up and log in

Guitar Tabs Explorer
Pantera tabs for Message in blood

Guitar tabs with lyrics

Album:  Cowboys From Hell
 Tabbed By: Lee Thomas Robson <The_Axis@gmx.co.uk> 01/11/2002

 - = palm muting     Tip: Hold the powerchords with your first
 / = slide                and little fingers. This will enable
 x = muted notes          you to reach the notes on the low e
 ^ = accented notes       string with your second finger.
 ~ = vibrato

 e|-------|-------------------------|-----------|
 b|--x4---|-------------------------|----x4-----|
 g|-------|-------------------------|-----------|The last part
 d|-8\7---|-8\7---7\6---6\6---5\4---|-----------|sounds more
 a|-6\5---|-6\5---5\4---4\3---3\2---|-----------|complicated
 e|-----6-|-----6-----5-----4-----3-|-1-111-111-|than it is.
                                      - --- ---
 e|-------------------------------------|
 b|-- Ive-added-spaces-to-make----------|
 g|---this-easier-to-read---------------|
 d|-------------------------------------|
 a|-5-5-3-5-5--3-5-5--3-5-5--3-5-5--3-5-|
 e|-3-3-1-3-3--1-3-3--1-3-3--1-3-3--1-3-|
    - - - - -  - - -  - - -  - - -  - -
 e|-------------|-----------------| |-------------|----------
 b|-------------|-----------------| |-x2----------|----------
 g|-------------|-----------------| |-------------|-2nd-time-
 d|-5-3---4-5-4-|-5-4---4-5-4-----| |-4-2---2-4---|-/10------
 a|-3-2---2-3-2-|-3-2---2-3-2-----| |-2-1---1-2---|-/10------
 e|-----3-------|-----2-------3-1-| |-----3-----3-|-1st-time-
    - - - - - -   - - - - - - - -
 e|-------------------------------------------------------------
 b|-------------------------------------------------------------
 g|------------------------------------------------4-x----4-x---
 d|-5-------5~---------- ? ? ? ---------4~---------4-x-6--4-x-6-
 a|-3-3-3-3-------------32--21---------------3-3-3-----6------6-
 e|-------------3-3-3-3---33-33--2-2-2-2-----1-1-1--------------
      - - -       - - - -------    - - -     - - -
 e|-------------- |-Verse-----------| |----------------------------|
 b|-------------- |----Vibrato------| |-2nd-time-------------------|
 g|-------------- |--+-trem bar-----| |----------------------------|
 d|-1----trem dive|----shake -------| |---------3-4--3-4-----------|
 a|-3----0--\---- |-3~--------------| |-3~------1-2--1-2--3-4--3-4-|
 e|------2--\---- |-----3~--2~--1~--| |-----3~------------1-2--1-2-|

 e|-use-pinch-harmonics-on-the-hammers-----------------|
 b|----------------------------------------------------|
 g|----------------------------------------------------|
 d|-5-------3h5----------------------------------------|
 a|-3-3-3-3------5-------4h5--4-------3h4--3-3-3-3-3---|
 e|--------------3-3-3-3------2-2-2-2------1-1-1-1-1-0-|
      - - -        - - -        - - -        - -
 e|----------|---------|---------|----------------|
 b|----------Wider-gaps-than-before-(*)-----------|
 g|----*-----|---*-----|---*-----|---*------------|
 d|-10--9----|-9---8---|-8---7---|-7---6----------|
 a|-8---7-10-|-7---6-9-|-6---5-8-|-5---4-7--------|
 e|-------8--|-------7-|-------6-|-------5-4~-----|


  After solo:
 e|------------------------------|------|------|
 b|-x3---------------------------|1,2,3-|-4th--|
 g|------------------------------|------|-time-|
 d|----------3-----5/6\5-3-----3-|------|------|
 a|-5--5--3--1--5--3/4\3-1--5--1-|-3--4-|-5--6-|
 e|-3--3--1-----3-----------3----|-1--2-|-3--4-|
    -  -  -     -           -
 e|------------------------------|------|------|
 b|-x2---------------------------|-once-|-2nd--|
 g|------------------------------|------|-time-|
 d|----------5-----7/8\7-5-----5-|------|------|
 a|-7--7--5--3--7--5/6\5-3--7--3-|-5--6-|-3--4-|
 e|-5--5--3-----5-----------5----|-3--4-|-1--2-|
    -  -  -     -           -
 e|------------------------------------|
 b|------------------------------------|x2
 g|------------------------------------|
 d|----------3-----5/6\5-3-----3-------|
 a|-5--5--3--1--5--3/4\3-1--5--1--3--4-|
 e|-3--3--1-----3-----------3-----1--2-|
    -  -  -     -           -
          ^ÓMessage In Blood, Message In Blood^Ô
 <<--------------------- X2 ------------------------>>
 e|-----------| e|------------------------------------|
 b|-x2--------| b|------------------------------------|
 g|-----------| g|------------------------------------|
 d|-----------| d|------------------------------------|
 a|-----------| a|-5-5-3-5-5--3-5-5--3-5-5--3-5-5-6-6-|
 e|-1-111-111-| e|-3-3-1-3-3--1-3-3--1-3-3--1-3-3-4-4-|
    - --- ---      - - - - -  - - -  - - -  - - -
 e|-Ending---------------|-------------------
 b|----------------------|-------------------
 g|----------------------|-------------------
 d|----(---3--)-(---3---)|---(---3---)(--3--)
 a|-14-13-13-13-12-12-12-|11-10-10-10--9-9-9-
 e|-12-11-11-11-10-10-10-|-9--8--8--8--7-7-7-
    -  -  -  -  -  -  -    -  -  -  -  - - -
 e|-------------------|
 b|-------------------|
 g|-------------------|
 d|--(--3--)(-3--)----|
 a|-9-7-7-7-6-6-6-6-5-|
 e|-6-5-5-5-4-4-4-4-3-|
    - - - - - - -

Other versions of Message In Blood

Message in Blood (Ver. 2)Tabs
Message in Blood (Ver. 3)Tabs

Almost there ...

Sign in to get your own page with links to favourite songs and more. You are just one click away...

Login with Facebook Login with Google