Log in

One click and you are in

Login with Facebook Login with Google

Why sign up and log in

Guitar Tabs Explorer
Mudvayne guitar tabs for Negative one

Guitar tabs

BAND: MuDvAyNe
SONG: -1
ALBUM: L.D. 50
TUNING: Dropped-D, down 1.5 steps (B, F#, B, E, G#, A chord diagramC#C#).
Tabed by ATS

INTRO/VERSE:  Gently w/ Mild Distortion

C#|--------------------------------------------------------|
G#|--------------------------------------------------------|
A chord diagramE MajorE |--------------------------------------------------------|
A chord diagramBB |-3-3-3-3-3-3-3-3-3-3-3-3-4-4--2-2-2-2-2-2-2-2-2-2-2-----|
F#|----------------------------------------------------0-0-|
A chord diagramBB |--------------------------------------------------------|

CHORUS: w/ Heavy Distortion.

C#|-----------------------------|
G#|-----------------------------|
A chord diagramE MajorE |-----------------------------|
A chord diagramBB |-1p0-0-0-0-h1--1p0-0-0-X-0-0-|
F#|-1p0-0-0-0-h1--1p0-0-0-X-0-0-|
A chord diagramBB |-1p0-0-0-0-h1--1p0-0-0-X-0-0-| x4, then-

C#|-----------------|
G#|-----------------|
A chord diagramE MajorE |-----------------|
A chord diagramBB |-1p0-0-0--0--0---|
F#|-1p0-0-0--0--0---|
A chord diagramBB |-1p0-0-0--0--0---| x4

Only on second chorus:

C#|-----------------------------|
G#|-----------------------------|
A chord diagramE MajorE |-----------------------------|
A chord diagramBB |-1p0-0-0-0-h1--1p0-0-0-X-0-0-|
F#|-1p0-0-0-0-h1--1p0-0-0-X-0-0-|
A chord diagramBB |-1p0-0-0-0-h1--1p0-0-0-X-0-0-| x4

FILL AFTER SECOND CHORUS:

C#|-----------------------------|
G#|-----------------------------|
A chord diagramE MajorE |-----------------------------|
A chord diagramBB |-----------------------------|
F#|-1p0-0-0-0-h1--1p0-0-0-X-0-0-|
A chord diagramBB |-1p0-0-0-0-h1--1p0-0-0-X-0-0-|

LEAD-IN BEFORE INTERLUDE:

C#|---|
G#|---|
A chord diagramE MajorE |---|
A chord diagramBB |-2-|
F#|-2-|
A chord diagramBB |-2-| strum this cord around 60 or so times, then:

C#|--------------------------------|
G#|--------------------------------|
A chord diagramE MajorE |--------------------------------|
A chord diagramBB |-2-2-2-2-2-2-2-2-2-2-2-2-2--X-X-|
F#|-2-2-2-2-2-2-2-2-2-2-2-2-2--X-X-|
A chord diagramBB |-2-2-2-2-2-2-2-2-2-2-2-2-2--X-X-| x4

INTERLUDE: no guitar.

LAST CHORUS:

C#|-----------------------------|
G#|-----------------------------|
A chord diagramE MajorE |-----------------------------|
A chord diagramBB |-1p0-0-0-0-h1--1p0-0-0-X-0-0-|
F#|-1p0-0-0-0-h1--1p0-0-0-X-0-0-|
A chord diagramBB |-1p0-0-0-0-h1--1p0-0-0-X-0-0-| x8, then:

C#|---------------------------------------------------------|
G#|---------------------------------------------------------|
A chord diagramE MajorE |---------------------------------------------------------|
A chord diagramBB |-1p0-0-0-0-h1--1p0-0-0-X-X--1p0-0-0-0-h1--1p0-0-0-X-X-X-X|
F#|-1p0-0-0-0-h1--1p0-0-0-X-X--1p0-0-0-0-h1--1p0-0-0-X-X-X-X|
A chord diagramBB |-1p0-0-0-0-h1--1p0-0-0-X-X--1p0-0-0-0-h1--1p0-0-0-X-X-X-X|

C#|----------------------------------------------------|
G#|----------------------------------------------------|
A chord diagramE MajorE |----------------------------------------------------|
A chord diagramBB |-1p0-0-0-0-h1--1p0-0-0-X-X-1p0-0-0-0-h1--1p0-0-0-X-X|
F#|-1p0-0-0-0-h1--1p0-0-0-X-X-1p0-0-0-0-h1--1p0-0-0-X-X|
A chord diagramBB |-1p0-0-0-0-h1--1p0-0-0-X-X-1p0-0-0-0-h1--1p0-0-0-X-X|

END ON THIS:

C#|-------------|
G#|-------------|
A chord diagramE MajorE |-------------|
A chord diagramBB |-1-1-0-0-1p0-|
F#|-1-1-0-0-1p0-|
A chord diagramBB |-1-1-0-0-1p0-|

Almost there ...

Sign in to get your own page with links to favourite songs and more. You are just one click away...

Login with Facebook Login with Google