Log in

One click and you are in

Login with Facebook Login with Google

Why sign up and log in

Guitar Tabs Explorer
Ufo guitar tabs for Too young to know

Guitar tabs

TOO YOUNG TO KNOW
UFO-Phenomenon (guitar Micheal Schenker)
tabbed by jr.hynes@crrstv.net
corrections welcome
 

intro
E-------------------------|---------------
B-------------------------|---------------
G-------12----------------|-------0-------
D-------12----------------|-----0---2p0---
A-12h14----12h14p12-10-12-|-0h2---------2-
E-------------------------|---------------
 
intro guitar solo  
  D             G               A chord diagramD MajorD
E----------|-----------------------|----------------
B----------|-----------------------|-------15-------
G-14-12----|-14-12-11-9----9-11-14-|-14b16----16b14-
D-------12-|------------12---------|----------------
A----------|-----------------------|----------------
E----------|-----------------------|----------------
 
  D             G               A chord diagramD MajorD
E----------|-----------------------|----------------
B----------|-----------------------|-------15-17-19~
G-14-12----|-14-12-11-9----9-11-14-|-14-16----------
D-------12-|------------12---------|----------------
A----------|-----------------------|----------------
E----------|-----------------------|----------------
 

DGD
 
chorus
CGD
 
ending
  A                A                A               A chord diagramA majorA
E-----------------------------------------------------
B-2----------------2----------------2-----------------
G-2----------------2----------------2-----------------
D-2-----2-2-4p2----2-----2-2-4p2----2-----2-2-4p2-----
A-0-3-4---------4--0-3-4---------4--0-3-4---------4-0-
E-----------------------------------------------------
  A                A                A                      A chord diagramA majorA
E----------------------------------------------------------0-|
B-2----------------2----------------2----------------------2-|
G-2----------------2----------------2----------------2-0---2-|
D-2-----2-2-4p2----2-----2-2-4p2----2-----2-2-4p2--------2-2-|
A-0-3-4---------4--0-3-4---------4--0-3-4---------4--------0-|
E------------------------------------------------------------|

Almost there ...

Sign in to get your own page with links to favourite songs and more. You are just one click away...

Login with Facebook Login with Google