Search tabs and chords

Search for song, artist or band

Log in

One click and you are in

Login with Facebook Login with Google

Why sign up and log in

Guitar Tabs Explorer
Rammstein guitar tabs for Zerstoren

Guitar tabs

Tuning: Drop C chord diagramCC


Intro:

d|--------------------------------|
A|--------------------------------|
F| chord diagramF|F|--------------------------------| x4
C| chord diagramC|C|--------------------------------|
G|--------------------------------|
C| chord diagramC|C|-4-1-1-0-1-1-0-1-0-1-1-1-0-0-1-1|

d|--------------------------------|
A|--------------------------------|
F| chord diagramF|F|--------------------------------| x4
C| chord diagramC|C|--------------------------------|
G|-4-1-1-0-1-1-0-1-0-1-1-1-0-0-1-1|
C| chord diagramC|C|-4-1-1-0-1-1-0-1-0-1-1-1-0-0-1-1|

d|--------------------------------|
A|--------------------------------|
F| chord diagramF|F|--------------------------------| x4
C| chord diagramC|C|--------------------------------|
G|-4-1-X-X-1-X-X-1-X-1-X-1-X-X-1-1|
C| chord diagramC|C|-4-1-X-X-1-X-X-1-X-1-X-1-X-X-1-1|


Verse:
                                  x6
d|--------------------------------||----|
A|--------------------------------||----|
F| chord diagramF|F|--------------------------------||----|
C| chord diagramC|C|--------------------------------||----|
G|-4-1-X-X-1-X-X-1-X-1-X-1-X-X-1-1||-4-1|
C| chord diagramC|C|-4-1-X-X-1-X-X-1-X-1-X-1-X-X-1-1||-4-1|

Chorus 1 and 2:

d|--------------------------------|
A|--------------------------------|
F| chord diagramF|F|--------------------------------| x2
C| chord diagramC|C|--------------------------------|
G|-4-1-1-0-1-1-0-1-0-1-1-1-0-0-1-1|
C| chord diagramC|C|-4-1-1-0-1-1-0-1-0-1-1-1-0-0-1-1|


d|--------------------------------
A|--------------------------------
F| chord diagramF|F|--------------------------------
C| chord diagramC|C|--------------------------------
G|-2-2-2-2-2-2-2-2-2-2-2-2-2-2-2-2
C| chord diagramC|C|-2-2-2-2-2-2-2-2-2-2-2-2-2-2-2-2

d|--------------------------------|
A|--------------------------------|
F| chord diagramF|F|--------------------------------| x3
C| chord diagramC|C|--------------------------------|
G|-4-1-1-0-1-1-0-1-0-1-1-1-0-0-1-1|
C| chord diagramC|C|-4-1-1-0-1-1-0-1-0-1-1-1-0-0-1-1|

d|----------------------------------------------------------------|
A|----------------------------------------------------------------|
F| chord diagramF|F|----------------------------------------------------------------|
C| chord diagramC|C|---------------------------------6-6-6-6-6-6-6-6-6-6-6-6-6-6-6-6|
G|-2-2-2-2-2-2-2-2-2-2-2-2-2-2-2-2-6-6-6-6-6-6-6-6-6-6-6-6-6-6-6-6|
C| chord diagramC|C|-2-2-2-2-2-2-2-2-2-2-2-2-2-2-2-2-6-6-6-6-6-6-6-6-6-6-6-6-6-6-6-6|


Pre-verse 2:

d|--------------------------------|
A|--------------------------------|
F| chord diagramF|F|--------------------------------| x4
C| chord diagramC|C|--------------------------------|
G|-4-1-1-0-1-1-0-1-0-1-1-1-0-0-1-1|
C| chord diagramC|C|-4-1-1-0-1-1-0-1-0-1-1-1-0-0-1-1|


Verse 2:

(Towards the end)

d|------------------------------------------------|
A|------------------------------------------------|
F| chord diagramF|F|------------------------------------------------|
C| chord diagramC|C|-1--1---------1--1---------1--1-----------------|
G|-1--1---------1--1---------1--1-----------------|
C| chord diagramC|C|-1--1--12b----1--1--12b----1--1--12b-12b-12b-12b|


Keyboard solo:

d|--------------------------------|
A|--------------------------------|
F| chord diagramF|F|--------------------------------| x8
C| chord diagramC|C|--------------------------------|
G|-4-1-1-0-1-1-0-1-0-1-1-1-0-0-1-1|
C| chord diagramC|C|-4-1-1-0-1-1-0-1-0-1-1-1-0-0-1-1|


Bridge:

d|---------------------------------------------------
A|---------------------------------------------------
F| chord diagramF|F|------------9--------------------------------------
C| chord diagramC|C|-11----9----9----9----11----6----------------------
G|-11----9----7----9----11----6----6----6--6--6-6-6-6
C| chord diagramC|C|-11----9---------9----11----6----6----6--6--6-6-6-6


Outro Chorus:

d|--------------------------------|
A|--------------------------------|
F| chord diagramF|F|--------------------------------| x2
C| chord diagramC|C|--------------------------------|
G|-4-1-1-0-1-1-0-1-0-1-1-1-0-0-1-1|
C| chord diagramC|C|-4-1-1-0-1-1-0-1-0-1-1-1-0-0-1-1|


d|--------------------------------
A|--------------------------------
F| chord diagramF|F|--------------------------------
C| chord diagramC|C|--------------------------------
G|-2-2-2-2-2-2-2-2-2-2-2-2-2-2-2-2
C| chord diagramC|C|-2-2-2-2-2-2-2-2-2-2-2-2-2-2-2-2

d|--------------------------------|
A|--------------------------------|
F| chord diagramF|F|--------------------------------| x3
C| chord diagramC|C|--------------------------------|
G|-4-1-1-0-1-1-0-1-0-1-1-1-0-0-1-1|
C| chord diagramC|C|-4-1-1-0-1-1-0-1-0-1-1-1-0-0-1-1|

d|----------------------------------------------------------------|
A|----------------------------------------------------------------|
F| chord diagramF|F|----------------------------------------------------------------|
C| chord diagramC|C|---------------------------------6-6-6-6-6-6-6-6-6-6-6-6-6-6-6-6|
G|-2-2-2-2-2-2-2-2-2-2-2-2-2-2-2-2-6-6-6-6-6-6-6-6-6-6-6-6-6-6-6-6|
C| chord diagramC|C|-2-2-2-2-2-2-2-2-2-2-2-2-2-2-2-2-6-6-6-6-6-6-6-6-6-6-6-6-6-6-6-6|

d|--------------------------------|
A|--------------------------------|
F| chord diagramF|F|--------------------------------| x12
C| chord diagramC|C|--------------------------------|
G|-4-1-1-0-1-1-0-1-0-1-1-1-0-0-1-1|
C| chord diagramC|C|-4-1-1-0-1-1-0-1-0-1-1-1-0-0-1-1|



Ending:

(Just put a bunch of random stuff
here I got this from Tab Pro)


Guitar 1:

d|-----------15-----------0--------------3--------------|
A|-----------0------------0--------------2--------------|
F| chord diagramF|F|------4------------4----3--------------1--------------|
C| chord diagramC|C|------3------------3----2----0/12\0----0--------------|
G|-12\--2------------2----1----0/12\0-------0----0----0~|
C| chord diagramC|C|-12\-------------------------0/12\0-------0----0----0~|


Guitar 2:

d|--------0-------------------------|
A|--------0-------------------------|
F| chord diagramF|F|--------0---------0--------------3|
C| chord diagramC|C|-----0--0----2----2----0----0----2|
G|-0-0-0--0----1----1----0----4----1|
C| chord diagramC|C|-0-0-0--0----0----0----0----0-----|



************************************

| b  Bend
| /  Slide up
| \  Slide down
| ~  Vibrato

Almost there ...

Sign in to get your own page with links to favourite songs and more. You are just one click away...

Login with Facebook Login with Google