Log in

One click and you are in

Login with Facebook Login with Google

Why sign up and log in

Guitar Tabs Explorer
Metallica tabs for In memory of cliff solo

Guitar tabs

Theres a 30 second bass solo at the beggining)
Play 3 times
e|------------------------|---------------------------|
b|0h1-1-00----------------|0h1-1h3-3-1-0--------------|
g|----------2-0--0-00-0h2-|--------------0-0004-0-0004|
d|------------------------|---------------------------|
a|------------------------|---------------------------|
e|------------------------|---------------------------|

this part is kind of played back and forth untill the end but
i think it makes a few changes but with a little trial and
error im sure you'll get it
e|-------------------------------|
b|---------------------3-----3---|
g|-----------4-----4-----4-4---4-|
d|5-2--2-5-2---5-5---5-----------|
a|-------------------------------|
e|-------------------------------|

By Littlemoron27

Almost there ...

Sign in to get your own page with links to favourite songs and more. You are just one click away...

Login with Facebook Login with Google