Search tabs and chords

Search for song, artist or band

Log in

One click and you are in

Login with Facebook Login with Google

Why sign up and log in

Guitar Tabs Explorer
Rammstein guitar tabs for Mein herz brennt

Guitar tabs with lyrics

Tabbed by: Peter (P├ętur)


 This is in a right order.
 COOL song!!!!
 (Drop D chord diagramDD tuning)

 Song played w/dist


 Main Riff:
           ____________
          |repeat this |
	  /part 3 times\
         /              \
 -------|----------------|----------------
 -------|----------------|----------------
 -5555--|5555--55555555--|5555xx5-6-------
 -5555--|5555--55555555--|5555xx3-4-------
 -3333--|3333--33333333--|3333xx3-4-------
 -------|----------------|----------------
	  And repeat the hole riff 2 times



 Riff 2:              repeat  riff 2 times
 -----------------------------------------
 -----------------------------------------
 -5---------------------------------------
 -5----------3----------6----------5------
 -3----------3----------6----------5------
 ------------3----------6----------5------
 Nun liebe kinder...........


 Main Riff:
           ____________
          |repeat this |
	  /part 3 times\
         /              \
 -------|----------------|----------------
 -------|----------------|----------------
 -5555--|5555--55555555--|5555xx5-6-------
 -5555--|5555--55555555--|5555xx3-4-------
 -3333--|3333--33333333--|3333xx3-4-------
 -------|----------------|----------------



 Riff 2:              repeat  riff 2 times
 -----------------------------------------
 -----------------------------------------
 -5---------------------------------------
 -5----------3----------6----------5------
 -3----------3----------6----------5------
 ------------3----------6----------5------
 Nun liebe kinder...........




 Main Riff:
	   ____________
          |repeat this |
	  /part 3 times\
         /              \
 -------|----------------|----------------
 -------|----------------|----------------
 -5555--|5555--55555555--|5555xx5-6-------
 -5555--|5555--55555555--|5555xx3-4-------
 -3333--|3333--33333333--|3333xx3-4-------
 -------|----------------|----------------




 Riff 3:
	   ____________
          |repeat this |
	  /part 3 times\
         /              \
 -------|----------------|----------------
 -------|----------------|----------------
 -5555--|5555--55555555--|5555xx5/4/3--2--
 -5555--|5555--55555555--|5555xx3/2/1--0--
 -3333--|3333--33333333--|3333xx3/2/1--0--
 -------|----------------|----------------
 Let ring:			       ...


 Solo:
          ______________________
 	 /   repeat this part   \
        /        3 times	 \
 ------|--------------------------|-------
 ------|--------------------------|-------
 ------|--------------------------|-------
 ------|-2-2-2-2/3-3-3/5-5--7-7-7/|-------
 ------|--------------------------|-------
 ------|--------------------------|-------


 -----------------------------------------
 -----------------------------------------
 --------5-5-5-5-5-5--7------5------------
 ---------------------------------8----7--
 -----------------------------------------
 -----------------------------------------
                  repeat hole Solo 3 times



 When Richard has played the solo
 one time of three, Paul plays this:

 Riff 4:
 -----------------------------------------
 -----------------------------------------
 -----------------------------3333-3333-33
 -0000-0000-00005555-5555-55553333-3333-33
 -0000-0000-00005555-5555-55551111-1111-11
 -0000-0000-00005555-5555-5555------------

 -----------------------------------------
 -----------------------------------------
 332222-2222-2222-------------------------
 332222-2222-2222-------------------------
 110000-0000-0000-------------------------
 -----------------------------------------

 -----------------------------------------
 -----------------------------------------
 -----------------------------3333-3333-33
 -0000-0000-00005555-5555-55553333-3333-33
 -0000-0000-00005555-5555-55551111-1111-11
 -0000-0000-00005555-5555-5555------------

 -----------------------------------------
 -----------------------------------------
 33-5555-55-------------------------------
 33-5555-55-------------------------------
 11-3333-33-------------------------------
 -----------------------------------------



 Main Riff:
           ____________
          |repeat this |
	  /part 3 times\
         /              \
 -------|----------------|----------------
 -------|----------------|----------------
 -5555--|5555--55555555--|5555xx5-6-------
 -5555--|5555--55555555--|5555xx3-4-------
 -3333--|3333--33333333--|3333xx3-4-------
 -------|----------------|----------------

Almost there ...

Sign in to get your own page with links to favourite songs and more. You are just one click away...

Login with Facebook Login with Google