Search tabs and chords

Search for song, artist or band

Log in

One click and you are in

Login with Facebook Login with Google

Why sign up and log in

Guitar Tabs Explorer
U2 bass tabs for The fly

Bass tabs

U2 THE FLY (BASS TAB)
---------------------
steve palmer- am560@freenet.carleton.ca

Verse:
   E                    E                    E
g|--------------------------------------------------------------|
d|--------------------------------------------------------------|
a|-7-7-7-5--7-7-7-7-5---7-7-7-5--7-7-7-7-5---7-7-7-5--7-7-7-7-5-|
E|--------------------------------------------------------------|

   E                    A                    D
g|--------------------------------------------------------------|
d|--------------------------------------------------------------|
a|-7-7-7-5--7-7-7-7-5------------------------5-5-5-3--5-5-5-5-3-|
E|----------------------5-5-5-3--5-5-5-5-3----------------------|

   E                    E
g|--------------------------------------------------------------|
d|--------------------------------------------------------------|
a|-7-7-7-5--7-7-7-7-5---7-7-7-5--7-7-7-7-5----------------------|
E|--------------------------------------------------------------|


Chorus:
   C#m            E              A               A
g|--------------------------------------------------------------|
d|--------------------------------------------------------------|
a|-4-4-4-4-4-4-4-4---------------0-0-0-0-0-0-0-0-0-0-0-0-0-0-0-0|
E|----------------0-0-0-0-0-0-0-0-------------------------------|


Post-Chorus:
   E           E           E          E
g|--------------------------------------------------------------|
d|-2-0---------2-0---------2-0--------2-0-----------------------|
a|-----2-0---------2-0---------2-0--------2-0-------------------|
E|---------3-----------3-----------3----------3-----------------|

Solo:

B    E-A-D-E-B-C#m-E-A

These are the chords given in the ACHTUNG BABY archive, they
are generally correct, though some parts are missing.  It's easy
to figure out the rest.  To play the chords, all notes are
played in eighth notes.

suggestions welcome

Almost there ...

Sign in to get your own page with links to favourite songs and more. You are just one click away...

Login with Facebook Login with Google