Search tabs and chords

Search for song, artist or band

Log in

One click and you are in

Login with Facebook Login with Google

Why sign up and log in

Guitar Tabs Explorer
Rammstein guitar tabs for Hallelujah

Guitar tabs

Tabbed by:Brett

Tuning:E chord diagramEE
A chord diagramAA
D chord diagramDD
G chord diagramGG
B chord diagramBB
E chord diagramEE

Play to the rythm of the song and you'll play it like a pro. And yes the song is
not fully complete but i think i got the jist of it.
verse
e|---------------------------------------------------------------------------|
B|---------------------------------------------------------------------------|
G|---------------------------------------------------------------------------|
D|---------------------------------------------------------------------------|
A|--5-5-2---3-3-2---5-5-2---3-3-2---5-5-2---3-3-2---5-5-2---3-3-2---5-5-2----|
E|--3-3-0---1-1-0---3-3-0---1-1-0---3-3-0---1-1-0---3-3-0---1-1-0---3-3-0----|


Chorus x2
e|---------------------------------------------------------------------------|
B|---------------------------------------------------------------------------|
G|---------------------------------------------------------------------------|
D|---------------------------------------------------------------------------|
A|--3-3-2---5-5-2--------2-2-2-2-2-2-2-2-2-2-2-2--5-5-2---2-2-2-2-2-2-2-2-2-2|
E|--1-1-0---3-3-0--------0-0-0-0-0-0-0-0-0-0-0-0--3-3-0---0-0-0-0-0-0-0-0-0-0|
pm........................       pm....................


e|---------------------------------------------------------------------------|
B|---------------------------------------------------------------------------|
G|---------------------------------------------------------------------------|
D|---------------------------------------------------------------------------|
A|--2-2--3-3-2---------------------------------------------------------------|
E|--0-0--1-1-0---------------------------------------------------------------|
pm....

Verse is played after the corus again then the corus is played then the
chorus where they sing (couldn't figure that part out). I used a peavey
guitar and a Marshall amp to get this sound.



| /  slide up
| \  slide down
| h  hammer-on
| p  pull-off
| ~  vibrato
| +  harmonic
| pm palm mute

Other versions of Hallelujah

HallelujahChords

Almost there ...

Sign in to get your own page with links to favourite songs and more. You are just one click away...

Login with Facebook Login with Google