Log in

One click and you are in

Login with Facebook Login with Google

Why sign up and log in

Guitar Tabs Explorer
Slipknot bass tabs for Vermilion

Bass tabs

Vermilion
By: Slipknot
Album: Vol. 3: The Subliminal Verses
Bassist: Paul Gray

Tuning: Drop B
Tabbed by Darksamus111


|----------------|----------------|
|---------666----|------66--------|
|444666777---4466|777777--6666666\| X4
|----------------|----------------|

|----------------|----------------|
|----------------|----------------|
|444666----------|--------6666666\| X4
|------5554444444|00000044--------|


|----------------|----------------|
|-------7/5-5454-|----------------|
|5-5-7/9--------5|3---5-----------|
|----------------|--------1---3---|

|----------------|      |----------------|
|----------------|      |----------------|
|---------1111111| X4 Then |----------------|
|000111000-------|      |0---------------|

|----------------|----------------|
|----------------|----------------|
|444666----------|--------6666666\| X4
|------5554444444|00000044--------|

|----------7-5-4-|--4-------------|----------------|
|--------7-------|7---7-5-7-5-----|----------------|
|5-5 7/9---------|-----------8-6--|6--5------------|
|----------------|----------------|----------------|

|----------------|
|----------------|
|---------1111111| X4
|000111000-------|

|----------------|----------------|
|----------------|----------------|
|----------------|--------3p24h555| X4
|1p0-00001p0-0000|2h3-3333--------|


second part switches with
|-----------------|
|-----------------|
|--------3p24h54h5|
|2h3 3333---------|
|-----------------|

|-----------------|-----------------|
|-----------------|-----------------|
|3-33332-3-2------|-----------------| X4
|------------0-000|03-3333----------|


|-----------------|
|-----------------|
|-----------------| X11
|1p0-0000---------|

|-----------------|------|
|-----------------|   |
|-----------------| X3  |
|1p0-0000000000---|   |
             X4
|-----------------|   |
|-----------------|   |
|0-0000-1-1111----|   |
|-----------------|------|

|-----------------|
|-----------------|
|0-0000-1-1111----| X2
|-----------------|

|----------------|----------------|
|----------------|----------------|
|----------------|--------3p24h555| X4
|1p0-00001p0-0000|2h3-3333--------|


second part switches with
|-----------------|
|-----------------|
|--------3p24h54h5|
|2h3 3333---------| X4
|-----------------|

|-----------------|-----------------|
|-----------------|-----------------|
|3-33332-3-2------|-----------------| X8
|------------0-000|03-3333----------|

|-----------------|-------------------|
|-----------------|-------------------|
|---------3-33330-|02-2222---0-0000---| X4
|0-0000323-------3|-------323------232|

|-----------------|
|-----------------|
|-----------------|

Other versions of Vermilion

Vermilion part 2Bass tabs

Almost there ...

Sign in to get your own page with links to favourite songs and more. You are just one click away...

Login with Facebook Login with Google