Guitar Tabs Explorer
Rammstein guitar tabs for Feuer und wasser

Feuer Und Wasser tab


Be the first to rate

Feuer Und Wasser tab by Rammstein

Guitar tabs with lyrics

Print

----------------------------------------------------------------------------
			     Feuer Und Wasser - Rammstein
----------------------------------------------------------------------------
Tabbed by: Bee-Ay

Tuning: C chord diagramCC-G chord diagramGG-C chord diagramCC-F chord diagramFF-A chord diagramAA-D chord diagramDD

Hello mates! Here i go again. eeh, well? - Listen to the song for timeing!

Opening riff, with clean guitar:
D|---------------------------------------------------------------|
A|---------------------------------------------------------------|
F| chord diagramF|F|---------------------------------------------------------------|
C|0 chord diagramC|0C|0---0---0---0---0---0---0---0---0---0---0---0---0---0---0---0--|
G|x-0---0---0---0-x-0---0---0---0-x-0---0---0---0-x-0---0---0---0|
C|0 chord diagramC|0C|0---------------0---------------0---------------0--------------|

When Till Begin singing:
D|-------------------|
A|-------------------|
F| chord diagramF|F|-------------------| Repeat this 4 times.
C|3 chord diagramC|3C|3-----5-----7---7--|
G|--5-----7-----8---8|
C| chord diagramC|C|-------------------|

Then:
D|-------------------------|
A|-------------------------|
F| chord diagramF|F|-------------------------|
C|12 chord diagramC|12C|12------10-----8-----8---|
G|---13------12----10----10|
C| chord diagramC|C|-------------------------|


D|-------------------|
A|-------------------|
F| chord diagramF|F|-------------------| Repeat this 4 times.
C|3 chord diagramC|3C|3-----5-----7---7--|
G|--5-----7-----8---8|
C| chord diagramC|C|-------------------|


D|-------------------------|
A|-------------------------|
F| chord diagramF|F|-------------------------|
C|12 chord diagramC|12C|12------10-----8-----8---|
G|---13------12----10----10|
C| chord diagramC|C|-------------------------|


D|--------------------------------|
A|--------------------------------|
F| chord diagramF|F|--------------------------------|
C|0 chord diagramC|0C|0---0---0---0---0---0---0---0---|
G|x-0---0---0---0-x-0---0---0----0|
C|0 chord diagramC|0C|0---------------0---------------|


Clean Chorus:
D|-----------------------------------------------------------|
A|-----------------------------------------------------------|
F| chord diagramF|F|-----------------------------------------------------------|
C|8 chord diagramC|8C|8----8----8----8----5----5----7----7-----0----0----0----0--|
G|--8----8----8----8----5----5----7----7-----0----0----0----0|
C| chord diagramC|C|-----------------------------------------------------------|


D|------------------------------------------------------------|
A|------------------------------------------------------------|
F| chord diagramF|F|------------------------------------------------------------|
C|10 chord diagramC|10C|10----10----10----10------8---8---8---8-----5---5----7---7--|
G|---10----10----10----10-----8---8---8---8-----5---5----7---7|
C| chord diagramC|C|------------------------------------------------------------|


D|---------------------------------------------------|
A|---------------------------------------------------|
F| chord diagramF|F|---------------------------------------------------|
C|3 chord diagramC|3C|3---3---/---7---7---/--12----12----/----10----10---|
G|--0---0------0---0--------10----10---------10----10|
C| chord diagramC|C|---------------------------------------------------|


D|---------------------------------------------------------------------|
A|---------------------------------------------------------------------|
F| chord diagramF|F|---------------------------------------------------------------------|
C|8 chord diagramC|8C|8---8---8---8-----5---5-----7---7-----0---0---0---0---0---0---0---0--|
G|--8---8---8---8-----5---5-----7---7-----0---0---0---0---0---0---0---0|
C| chord diagramC|C|---------------------------------------------------------------------|


Now Chorus with distorsion!
D|-----------------------------------------------|
A|-----------------------------------------------|
F| chord diagramF|F|-----------------------------------------------|
C|8 chord diagramC|8C|8-8-8-8-8-8-8-8-5-5-5-5-7-7-7-7-0-0-0-0-0-0-0-0|
G|8-8-8-8-8-8-8-8-5-5-5-5-7-7-7-7-0-0-0-0-0-0-0-0|
C|8 chord diagramC|8C|8-8-8-8-8-8-8-8-5-5-5-5-7-7-7-7-0-0-0-0-0-0-0-0|


D|-------------------------------------------------------|
A|-------------------------------------------------------|
F| chord diagramF|F|-------------------------------------------------------|
C|10 chord diagramC|10C|10-10-10-10-10-10-10-10-8-8-8-8-8-8-8-8-5-5-5-5-7-7-7-7|
G|10-10-10-10-10-10-10-10-8-8-8-8-8-8-8-8-5-5-5-5-7-7-7-7|
C|10 chord diagramC|10C|10-10-10-10-10-10-10-10-8-8-8-8-8-8-8-8-5-5-5-5-7-7-7-7|

D|-----------------------------------------------|
A|-----------------------------------------------|
F| chord diagramF|F|-----------------------------------------------|
C|8 chord diagramC|8C|8-8-8-8-8-8-8-8-5-5-5-5-7-7-7-7-0-0-0-0-0-0-0-0|
G|8-8-8-8-8-8-8-8-5-5-5-5-7-7-7-7-0-0-0-0-0-0-0-0|
C|8 chord diagramC|8C|8-8-8-8-8-8-8-8-5-5-5-5-7-7-7-7-0-0-0-0-0-0-0-0|


And after some times you do:
D|---------|
A|---------|
F| chord diagramF|F|---------|
C| chord diagramC|C|(0)---0-0|  Repeat 4 times.
G|(0)---0-0|
C| chord diagramC|C|(0)---0-0|
   |    ...
   |     |
   |  Mute these 2 notes.
   |
 Let (0)ring a bit.

And in this part the verse guitar is played too..




AND NOW, YIIIHAAAA! SOLO!
D|----------------
A|----------------
F| chord diagramF|F|-------15---14--
C| chord diagramC|C|----------------
G|--12------------
C| chord diagramC|C|----------------

D|--------------------------------------------12---13---12--
A|-------------------------------------15~------------------
F| chord diagramF|F|---------------14---15---12~----14------------------------
C| chord diagramC|C|--15~~---14p12--------------------------------------------
G|----------------------------------------------------------
C| chord diagramC|C|----------------------------------------------------------

D|----------------------------------------15--13------12--13--17b18--
A|-------------------15---------------------------15-----------------
F| chord diagramF|F|---------------------------14--15--12------------------------------
C| chord diagramC|C|------14---15--12------12------------------------------------------
G|--12---------------------------------------------------------------
C| chord diagramC|C|-------------------------------------------------------------------

D|--15--13--12----------------|
A|--------------15---13b15~~--|
F| chord diagramF|F|----------------------------|
C| chord diagramC|C|----------------------------|
G|----------------------------|
C| chord diagramC|C|----------------------------|

Rythm guitar: Chorus.


One of the last times the chorus is played, there is a little change:
D|-----------------------------------------------|
A|-----------------------------------------------|
F| chord diagramF|F|-----------------------------------------------|
C|8 chord diagramC|8C|8-8-8-8-8-8-8-8-5-5-5-5-7-7-7-7-0-0-0-0-0-0-0-0|
G|8-8-8-8-8-8-8-8-5-5-5-5-7-7-7-7-0-0-0-0-0-0-0-0|
C|8 chord diagramC|8C|8-8-8-8-8-8-8-8-5-5-5-5-7-7-7-7-0-0-0-0-0-0-0-0|


D|-----------------------------------------------------------------------|
A|-----------------------------------------------------------------------|
F| chord diagramF|F|-----------------------------------------------------------------------|
C|10 chord diagramC|10C|10-10-10-10-10-10-10-10-8-8-8-8-8-8-8-8-3-3-3-3-3-3-3-3-0-0-0-0-0-0-0-0|
G|10-10-10-10-10-10-10-10-8-8-8-8-8-8-8-8-3-3-3-3-3-3-3-3-0-0-0-0-0-0-0-0|
C|10 chord diagramC|10C|10-10-10-10-10-10-10-10-8-8-8-8-8-8-8-8-3-3-3-3-3-3-3-3-0-0-0-0-0-0-0-0|


End:
D|------------------------------------------------------------|
A|------------------------------------------------------------|
F| chord diagramF|F|------------------------------------------------------------|
C|10 chord diagramC|10C|10-10-10-10-10-10-10-10-8-8-8-8-8-8-8-8-5-5-5-5-7-7-7-7--(0)|
G|10-10-10-10-10-10-10-10-8-8-8-8-8-8-8-8-5-5-5-5-7-7-7-7--(0)|
C|10 chord diagramC|10C|10-10-10-10-10-10-10-10-8-8-8-8-8-8-8-8-5-5-5-5-7-7-7-7--(0)|
                                                            |
                                                            |
                                                            |
                                                   Let ring totaly OUT!


Brilliant song. If comments or anything else, mail me...

Comment this song and these guitar tabs

Do you have corrections, comments on the guitar tabs, thoughts about the song or a message to the author? Write them below.