Search tabs and chords

Search for song, artist or band

Log in

One click and you are in

Login with Facebook Login with Google

Why sign up and log in

Guitar Tabs Explorer
Rammstein guitar tabs for Liebe ist fur alle da

Guitar tabs

Tuning: Drop D chord diagramDD

NOTE: The intro repeats 2 times

[Intro pt. 1]

(Guitar 1) (Guitar 1 starts first)

e|----------------------------|
B|----------------------------|
G|----------------------------| (Now guitar 2's turn...)
D|----------------------------|
A|----------------------------|
D|-4-4-4-4-4--4-4-4-4-4--4-4-4|
   . . . . .  . . . . .  . . .
[Intro pt. 1]

(Guitar 2)

e|-------------------------------------------------------|
B|-------------------------------------------------------|
G|-------------------------------------------------------| (Now Guitar
D|-------------------------------------------------------|  1 again...)
A|-------------------------------------------------------|
D|----------------------------4-4-4-4-4--4-4-4-4-4--4-4-4|
                              . . . . .  . . . . .  . . .

Then... (Guitar 1 does this and not Guitar 2)

e|-----------|
B|-----------|
G|-----------|
D|---------3b|
A|-----------|
D|-4--3--2---|

[Intro pt. 2]

                                 x3
e|-------------------------------||--------------------------------|
B|-------------------------------||--------------------------------|
G|--------7-------7------7----7/8||--------7-------7------7--3-3-3-| x2
D|--------7-------7------7----7/8||--------7-------7------7--3-3-3-|
A|--------5-------5------5----5/6||--------5-------5------5--1-1-1-|
D|-0-0-0-----0-0-----0-0----0----||-0-0-0-----0-0-----0-0----------|
   . . .     . .     . .    .       . . .     . .     . .


[Verse]

e|---------------------|
B|---------------------|
G|---------------------| x8
D|---------------------|
A|---------------------|
D|-4-4-4-4-4--4-4-4-4-4|
   . . . . .  . . . . .


[Pre-Chorus]

                                 x3
e|-------------------------------||--------------------------------|
B|-------------------------------||--------------------------------|
G|--------7-------7------7----7/8||--------7-------7------7--3-3-3-|
D|--------7-------7------7----7/8||--------7-------7------7--3-3-3-|
A|--------5-------5------5----5/6||--------5-------5------5--1-1-1-|
D|-0-0-0-----0-0-----0-0----0----||-0-0-0-----0-0-----0-0----------|
   . . .     . .     . .    .       . . .     . .     . .


[Chorus]

e|------------------------|
B|------------------------|
G|-4------4---------------|
D|-4------4------3------0-|
A|-2------2------3------0-|
D|---------------3------0-|

e|--------------------------------------------------------------------|
B|--------------------------------------------------------------------|
G|--------------------------------------------------------------------|
D|--------4-------4-------4-----4/5---------4-------4-------4-----4/5-|
A|-2-2-2--2--2-2--2--2-2--2--2--2/3--2-2-2--2--2-2--2--2-2--2--2--2/3-|
D|--------------------------------------------------------------------|
   . . .     . .     . .     .       . . .     . .     . .     .

e|-----------------------------------|
B|-----------------------------------|
G|-----------------------------------|
D|--------3-------3-------3-----3-4-0|
A|--------3-------3-------3-----3-4-0|
D|-3-3-3--3--3-3--3--3-3--3--3--3-4-0|
   . . .     . .     . .     .


[Pre-Verse]

(Guitar 2)

e|----------------------------|
B|----------------------------|
G|----------------------------|
D|----------------------------|
A|----------------------------|
D|-4-4-4-4-4--4-4-4-4-4--4-4-4|
   . . . . .  . . . . .  . . .


[Pre-solo]

e|-----------------|
B|-----------------|
G|--------7-----7/8| x8
D|--------7-----7/8|
A|--------5-----5/6|
D|-0-0-0-----0-----|
   . . .     .


[Solo]

e|-----|
B|-----|
G|-19\-|
D|-----|
A|-----|
D|-----|

    T     x7
e|--------||-------|
B|--------||-------|
G|-14p7h10||-*7-*10| x3
D|--------||-------|
A|--------||-------|
D|--------||-------|

    T     x7
e|--------||---------|
B|--------||---------|
G|-14p7h10||-7~///19-|
D|--------||---------|
A|--------||---------|
D|--------||---------|


[Last Chorus]

e|-----------------------|
B|-----------------------|
G|-4------4--------------| x2
D|-4------4------3------0|
A|-2------2------3------0|
D|---------------3------0|


[Outro]
                                 x4
e|-------------------------------||-----------------|
B|-------------------------------||-----------------|
G|--------7-------7------7----7/8||--------7-------7| x2
D|--------7-------7------7----7/8||--------7-------7|
A|--------5-------5------5----5/6||--------5-------5|
D|-0-0-0-----0-0-----0-0----0----||-0-0-0-----0-0---|
   . . .     . .     . .    .       . . .     . .



************************************

| h  Hammer-on
| p  Pull-off
| b  Bend
| /  Slide up
| \  Slide down

Other versions of Liebe Ist Fur Alle Da

Liebe ist fur alle darTabs

Almost there ...

Sign in to get your own page with links to favourite songs and more. You are just one click away...

Login with Facebook Login with Google