Guitar Tabs Explorer
Rammstein bass tabs for Du hast (Ver. 2)

Du Hast bass tab


Be the first to rate

Du Hast bass tab by Rammstein (Ver. 2)

Bass tabs

Print
Hey guys, this is the way I play this song, because playing it in eighths
and thus following the drum instead of the guitar) gives the song a much
deeper and heavier tone all-together.
Please rate if you liked it! Have fun!


Intro
  8 measures synth, 1 measure drum

Bass starts                          3x
G|------------------|------------------|-----------------|
D|*-----------------|-----------------*|-----------------|
A|*-----------------|-----------------*|-----------------|
E|--5-3-0-0-0-0-0-5-|-3-0-0-0-0-0-0-0--|-3-5-0-0-0-0-0-0-|
    1   2   3   4     1   2   3   4      1   2   3   4


Verse                                  8x
G|------------------|--------------------|-----------------|
D|*-----------------|-------------------*|-----------------|
A|*-----------------|-------------------*|-----------------|
E|--5-3-0-0-0-0-0-5-|-3-0-0-0-(3)-0-0-0--|-----------------|
    1   2   3   4     1   2    3    4      1   2   3   4


Re-intro                             3x
G|------------------|------------------|-----------------|
D|*-----------------|-----------------*|-----------------|
A|*-----------------|-----------------*|-----------------|
E|--5-3-0-0-0-0-0-5-|-3-0-0-0-0-0-0-0--|-3-5-0-0-0-0-0-0-|
    1   2   3   4     1   2   3   4      1   2   3   4

                     ____________________ ___________________
Verse                |1.2.3.              |4.
G|------------------|--------------------|-----------------|
D|*-----------------|-------------------*|-----------------|
A|*-----------------|-------------------*|-----------------|
E|--5-3-0-0-0-0-0-5-|-3-0-0-0-(3)-0-0-0--|-----------------|
    1   2   3   4     1   2    3    4      1   2   3   4


Chorus
G|------------------|-----------------|-----------------|-----------------|
D|*-----------------|-----------------|-----------------|-----------------|
A|*-----------------|-----------------|-----------------|-----------------|
E|--5-3-0-0-0-0-0-5-|-3-0-0-0-0-0-0-0-|-3-5-5-5-5-5-5-5-|-3-5-5-5-5-5-5-5-|
    1   2   3   4     1   2   3   4     1   2   3   4     1   2   3   4
                                                                        3x
G|-----------------|-----------------|-----------------|------------------|
D|-----------------|-----------------|-----------------|-----------------*|
A|---3-3-3-3-3-3-5-|-2-2-2-2-2-2-2-2-|-----------------|-----------------*|
E|-5---------------|-----------------|-5-3-0-0-0-0-0-5-|-3-0-0-0-0-0-0-0--|
   1   2   3   4     1   2   3   4     1   2   3   4     1   2   3   4


A Capella
  8 measures rest


Interlude
G|------------------|-----------------|-----------------|-----------------|
D|*-----------------|-----------------|-----------------|-----------------|
A|*-----------------|-----------------|-----------------|-----------------|
E|--5-3-0-0-0-0-0-5-|-3-0-0-0-0-0-0-0-|-3-5-5-5-5-5-5-5-|-3-5-5-5-5-5-5-5-|
    1   2   3   4     1   2   3   4     1   2   3   4     1   2   3   4
                                      __________________
                                      |1.
G|-----------------|-----------------|-----------------|------------------|
D|-----------------|-----------------|-----------------|-----------------*|
A|---3-3-3-3-3-3-5-|-2-2-2-2-2-2-2-2-|-----------------|-----------------*|
E|-5---------------|-----------------|-5-3-0-0-0-0-0-5-|-3-0-0-0-0-0-0-0--|
   1   2   3   4     1   2   3   4     1   2   3   4     1   2   3   4
  __________________
  |2.
G|-----------------|-----------------|
D|-----------------|-----------------|
A|-----------------|-----------------|
E|-----------------|-----------------|
   1   2   3   4     1   2   3   4


Chorus
G|------------------|-----------------|-----------------|-----------------|
D|*-----------------|-----------------|-----------------|-----------------|
A|*-----------------|-----------------|-----------------|-----------------|
E|--5-3-0-0-0-0-0-5-|-3-0-0-0-0-0-0-0-|-3-5-5-5-5-5-5-5-|-3-5-5-5-5-5-5-5-|
    1   2   3   4     1   2   3   4     1   2   3   4     1   2   3   4

                                                                        3x
G|-----------------|-----------------|-----------------|------------------|
D|-----------------|-----------------|-----------------|-----------------*|
A|---3-3-3-3-3-3-5-|-2-2-2-2-2-2-2-2-|-----------------|-----------------*|
E|-5---------------|-----------------|-5-3-0-0-0-0-0-5-|-3-0-0-0-0-0-0-0--|
   1   2   3   4     1   2   3   4     1   2   3   4     1   2   3   4

Other versions of Du Hast

Du hastBass tabs

Comment this song and these bass tabs

Do you have corrections, comments on the bass tabs, thoughts about the song or a message to the author? Write them below.