Log in

One click and you are in

Login with Facebook Login with Google

Why sign up and log in

Guitar Tabs Explorer
Ozzy Osbourne tabs for Bark at the moon1

Guitar tabs with lyrics

Bark at the Moon

Riff A chord diagramA augmentedA
-]--------------------------------------------------- St.P.
8]-10------10------10------10----8----8-------------- means
9]—-9-------9-------9-------9----9----9------7------7 Stec-
7]—-7-------7-------7-------7----7----7------5------5 cato
-]---000000--000000--000000--0000-0000-000000-000000- Pick-
-]--------------------------------------------------- ing
St.P.______  ______  ______  ____ ____ ______ ______
                     1st time only
--------------[---------------------------]Play Riff A chord diagramA augmentedA
--------------[---------------------------]Through Twice,
------7------7[------10----10----10----10-]Using This Only
------5------5[------10-----9-----9-----9-]the First Time,
000000-000000-[000000--0000--0000--0000---]then use the pr-
--------------[---------------------------]oper fill below.
______ ______  ______  ____  ____  ____
Fill 1 (RiffA)       Fill 2 (RiffA)
----------------     ----------------
----------------     ----------------
----------------     ----------------
----------------     ----------------
-1-0-1-3-1-0----     -1-0-1-3-1-0----
-------------3-1     -------------0-1

Riff A chord diagramBB
------------------------
-7---7-7-3---3-3-5-10-7-
-6---6-6-2---2-2-4--9-6-
-4---4-4-0---0-0-2--7-4-
-4---4-4-0---0-0-2--7-4-
------------------------

Riff A chord diagramBB Part 2
------------------------
-7---7-7-3---3-3-5-5----
-6---6-6-2---2-2-4-4----
-4---4-4-0---0-0-2-2----
-4---4-4-0---0-0-2-2----
------------------------

Riff A chord diagramC majorC          1st time    2nd time
---------------[-----------][---------------]------------
---------------[-----------][---------------]------------
-2------5-7-4--[3p0-5­¯-3p0][---44--775544--]-3/1-1-1-1/3
-2------5-7-5--[-----------][-55--55------55]-4/2-2-2-2/4
-0--0-0--------[-----------][---------------]------------
---------------[-----------][---------------]------------
  PM_ _        Bend­then¯   PM______________
                            Play Very Fast


Riff A chord diagramD MajorD
                                 Last Time
---------------------3-----3-----[3-----3------]
---------------------3-----3-----[3-----3------]
---------------------0-----0-----[0-----0------]
-3---3-3*-3---3-3*---0-----0-----[0-----0------]
-3--3-----3--3---------------2~--[----------2~-]
-1-1------1-1--------3-----3-0~--[3-----3---0~-]
PM ___      ___                         Dive
*= Pinch Harmonic

·There is no solo or outro included in this tab, so you may
 have to look somewhere else. :( But this should get you
 through the main parts of the song okay.
·This was made in Microsoft Word using Courier New Size 10, so
 if you copy and paste it in that form, it should print out nicely. :)
·If you have any questions or comments, please email me at
 silvergrayling@yahoo.com
·This is just another way to play the song, as many songs have
 many ways to play them. I found this one to work the best for me.

Other versions of Bark At The Moon1

Bark at The MoonTabs
Bark at The Moon (Ver. 2)Tabs
Bark at The Moon AlbumTabs

Almost there ...

Sign in to get your own page with links to favourite songs and more. You are just one click away...

Login with Facebook Login with Google