Log in

One click and you are in

Login with Facebook Login with Google

Why sign up and log in

Guitar Tabs Explorer
Hala bass tabs for Found a way

Bass tabs

Tuning: Standard (E A D G)

0:07
G|---------------------------------------------------------------------|
D|---------------------------------------------------------------------|
A|--------5--5-5------10--10--10-10-10-----8--8-8-----10--10--10-10-10-|  x4
E|---------------------------------------------------------------------|
0:34
G|------------------------------------------------------------------------------------------|
D|------------------------------------------------------------------------------------------|
A|--------5--5-5-----5--5-5-----5--5-5-----10--10--10-10-10-----8--8-8-----10--10--10-10-10-|
E|------------------------------------------------------------------------------------------|

G|---------------------------------------------------------------------|
D|---------------------------------------------------------------------|
A|--------5--5-5------10--10--10-10-10-----8--8-8-----10--10--10-10-10-|  x3
E|---------------------------------------------------------------------|


1:04
G|-------7---------5---------------------------------|
D|------------7-------7----5------5------------------|
A|---5-------------------------8------8/10--10-10-10-|  x8
E|---------------------------------------------------|


1:32
No bass


1:46
G|---------------------------------------------------------------------|
D|---------------------------------------------------------------------|
A|--------5--5-5------10--10--10-10-10-----8--8-8-----10--10--10-10-10-|  x4
E|---------------------------------------------------------------------|

2:13
G|---------------------------------------------------------------------|
D|---------------------------------------------------------------------|
A|--------5--5-5------10--10--10-10-10----------------10--10--10-10-10-|
E|---------------------------------------------------------------------|

G|---------------------------------------------------------------------|
D|---------------------------------------------------------------------|
A|--------5--5-5------10--10--10-10-10-----8--8-8-----10--10--10-10-10-|  x4
E|---------------------------------------------------------------------|


2:27
G|-------7---------5---------------------------------|
D|------------7-------7----5------5------------------|
A|---5-------------------------8------8/10--10-10-10-|  x16
E|---------------------------------------------------|


***********************************

| x  Dead note
| /  Slide-up
| pb Pre-bend
| ~  Vibrato
| .  Staccato
| PM Palm muting

***********************************

Almost there ...

Sign in to get your own page with links to favourite songs and more. You are just one click away...

Login with Facebook Login with Google