Search tabs and chords

Browse bands and artists

A B C D E F G H I J K L M N O P Q R S T U V W X Y Z #

Log in

[ Register here | Forgot password ]

Guitar Tabs Explorer
Print

Bass tabs :

This Means War bass tab by Nickelback

Nickelback: This Means War

Guitar Intro

Intro
Eb|---------------|
Ab|---------------|
F |---------------|
Ab|-0-0-3~-0-0-5~-|

Chorus
Eb|------------------------------------------------------|
Ab|------------------------------------------------------|
F |-5--------8--------3--------5-------------------------|
Ab|----0-0-0----0-0-0----0-0-0---0-0-0-0-6-5-0-0-6-5-0-0-|

Eb|----------------------------------------------------|
Ab|----------------------------------------------------|
F |-5--------8--------3--------5-----------------------|
Ab|----0-0-0----0-0-0----0-0-0---0-0-0-0-0-0-3~-0-0-5~-|

Verse
Eb|----------------------------------------------|
Ab|----------3---------------3-------------------|
F |-5--3--5-----5---5--3--5-----5----------------|10x
Ab|---------------------------------0-0-3~-0~-5~-|

Pre-Verse:
Eb|------------------------------------------------------------|
Ab|------------------------------------------------------------|
F |-------------------3~-5-3~-5--------------------------------|
Ab|-0--0--0--0--0--0------------0--0--0--0--0--0-0-0-3~-0-0-5~-|

Chorus: 2x
Eb|------------------------------------------------------|
Ab|------------------------------------------------------|
F |-5--------8--------3--------5-------------------------|
Ab|----0-0-0----0-0-0----0-0-0---0-0-0-0-6-5-0-0-6-5-0-0-|

Eb|----------------------------------------------------|
Ab|----------------------------------------------------|
F |-5--------8--------3--------5-----------------------|
Ab|----0-0-0----0-0-0----0-0-0---0-0-0-0-0-0-3~-0-0-5~-|

Verse
Eb|----------------------------------------------|
Ab|----------3---------------3-------------------|
F |-5--3--5-----5---5--3--5-----5----------------|10x
Ab|---------------------------------0-0-3~-0~-5~-|

Pre-Verse:
Eb|------------------------------------------------------------|
Ab|------------------------------------------------------------|
F |-------------------3~-5-3~-5--------------------------------|
Ab|-0--0--0--0--0--0------------0--0--0--0--0--0-0-0-3~-0-0-5~-|

Chorus: 2x
Eb|------------------------------------------------------|
Ab|------------------------------------------------------|
F |-5--------8--------3--------5-------------------------|
Ab|----0-0-0----0-0-0----0-0-0---0-0-0-0-6-5-0-0-6-5-0-0-|

Eb|----------------------------------------------------|
Ab|----------------------------------------------------|
F |-5--------8--------3--------5-----------------------|
Ab|----0-0-0----0-0-0----0-0-0---0-0-0-0-0-0-3~-0-0-5~-|

Bridge
Eb|--------------------------|
Ab|--------------------------|
F |--------------------------|3x
Ab|-3~-0---------------------|

Eb|-------------------|
Ab|-------------------|
F |-------------------|
Ab|-6~-6~-6~-5--------|

Eb|--------------------------|
Ab|--------------------------|
F |------------------3-5-----|3x
Ab|-3~-0---6~-5--0-0-----0-0-|

Eb|-------------------|
Ab|-------------------|
F |-------------------|
Ab|-6~-6~-6~-5--3--5--|

Eb|--------------------------|
Ab|--------------------------|
F |------------------3-5-----|3x
Ab|-3~-0---6~-5--0-0-----0-0-|

Eb|-------------------|
Ab|-------------------|
F |-------------------|2x
Ab|-6~-6~-6~-5--3--5--|

Eb|------------------|
Ab|------------------|
F |-------------3--5-|
Ab|-0--3--5--6-------|

Rest

Chorus: 2x
Eb|------------------------------------------------------|
Ab|------------------------------------------------------|
F |-5--------8--------3--------5-------------------------|
Ab|----0-0-0----0-0-0----0-0-0---0-0-0-0-6-5-0-0-6-5-0-0-|

Eb|----------------------------------------------------|
Ab|----------------------------------------------------|
F |-5--------8--------3--------5-----------------------|
Ab|----0-0-0----0-0-0----0-0-0---0-0-0-0-0-0-3~-0-0-5~-|

Outro
Eb|--------------------------|
Ab|--------------------------|
F |------------------3-5-----|3x
Ab|-3~-0---6~-5--0-0-----0-0-|

Eb|-------------------|
Ab|-------------------|
F |-------------------|
Ab|-6~-6~-6~-5--3--5--|

Eb|--------------------------|
Ab|--------------------------|
F |------------------3-5-----|3x
Ab|-3~-0---6~-5--0-0-----0-0-|

Eb|-------------------|
Ab|-------------------|
F |-------------------|2x
Ab|-6~-6~-6~-5--3--5--|

Eb|----------------------|
Ab|----------------------|
F |-------------3--5--5\-|
Ab|-0--3--5--6-----------|



************************************

| B  Bend
| ~  Vibrato
| \  Slide down
|

Comments

Nickelback bass tabs for This means war