Log in

One click and you are in

Login with Facebook Login with Google

Why sign up and log in

Guitar Tabs Explorer
The Neighbourhood bass tabs for Devils advocate

Devils Advocate bass tab by The Neighbourhood

The Neighbourhood bass tabs for Devils advocate

Bass tabs

Tuning: Standard (E A D G)


Intro:

G|---------7--9--7-----------7--9--7-----------7--9--7-----------7--11--9--7------|
D|---7--9--------------7--9--------------7--9--------------7--9-------------------|
A|7-----------------7-----------------7-----------------7-------------------------|
E|--------------------------------------------------------------------------------|

G|----------7--11--14------------7--11--7-----------7--9--7-----------7--7--------|
D|----7--9-----------------7--9---------------7--9--------------7--9--------------|
A|10-------------------10------------------7-----------------7--------------------|
E|--------------------------------------------------------------------------------|
Verse:

G|---------7--9--7-----------7--9--7-----------7--9--7-----------7--11--9--7------|
D|---7--9--------------7--9--------------7--9--------------7--9-------------------|
A|7-----------------7-----------------7-----------------7-------------------------|
E|--------------------------------------------------------------------------------|

G|----------7--11--14------------7--11--7-----------7--9--7-----------7--7--------|
D|----7--9-----------------7--9---------------7--9--------------7--9--------------|
A|10-------------------10------------------7-----------------7--------------------|
E|--------------------------------------------------------------------------------|


Chorus:

G|---------7--9--7-----------7--9--7-----------7--9--7-----------7--11--9--7------|
D|---7--9--------------7--9--------------7--9--------------7--9-------------------|
A|7-----------------7-----------------7-----------------7-------------------------|
E|--------------------------------------------------------------------------------|
                                             x2
G|----------7--11--14------------7--11--7-----------7--9--7-----------7--7--------|
D|----7--9-----------------7--9---------------7--9--------------7--9--------------|
A|10-------------------10------------------7-----------------7--------------------|
E|--------------------------------------------------------------------------------|

Post-Chorus:

G|---------7--9--7-----------7--9--7-----------7--9--7-----------7--11--9--7------|
D|---7--9--------------7--9--------------7--9--------------7--9-------------------|
A|7-----------------7-----------------7-----------------7-------------------------|
E|--------------------------------------------------------------------------------|

G|----------7--11--14------------7--11--7-----------7--9--7-----------7--7--------|
D|----7--9-----------------7--9---------------7--9--------------7--9--------------|
A|10-------------------10------------------7-----------------7--------------------|
E|--------------------------------------------------------------------------------|

Verse:

G|---------9--7--------------7--9--7-----------7--9--7-----------7--11--9--7------|
D|---7~----------------7--9--------------7--9--------------7--9-------------------|
A|7-----------------7-----------------7-----------------7-------------------------|
E|--------------------------------------------------------------------------------|


G|----------7--11--14------------7--11--7-----------7--9--7-----------7--7--------|
D|----7--9-----------------7--9---------------7--9--------------7--9--------------|
A|10-------------------10------------------7-----------------7--------------------|
E|--------------------------------------------------------------------------------|


Chorus:

G|---------7--9--7-----------7--9--7-----------7--9--7-----------7--11--9--7------|
D|---7--9--------------7--9--------------7--9--------------7--9-------------------|
A|7-----------------7-----------------7-----------------7-------------------------|
E|--------------------------------------------------------------------------------|

G|----------7--11--14------------7--11--7-----------7--9--7-----------7--7--------|
D|----7--9-----------------7--9---------------7--9--------------7--9--------------|
A|10-------------------10------------------7-----------------7--------------------|
E|--------------------------------------------------------------------------------|


Outro:

G|---------7--9--7-----------7--9--7-----------7--9--7-----------7--11--9--7------|
D|---7--9--------------7--9--------------7--9--------------7--9-------------------|
A|7-----------------7-----------------7-----------------7-------------------------|
E|--------------------------------------------------------------------------------|
                                             x2
G|----------7--11--14------------7--11--7-----------7--9--7-----------7--7--------|
D|----7--9-----------------7--9---------------7--9--------------7--9--------------|
A|10-------------------10------------------7-----------------7--------------------|
E|--------------------------------------------------------------------------------|


************************************

| ~  Vibrato

************************************

Almost there ...

Sign in to get your own page with links to favourite songs and more. You are just one click away...

Login with Facebook Login with Google