Search tabs and chords

Browse bands and artists

A B C D E F G H I J K L M N O P Q R S T U V W X Y Z #

Log in

[ Register here | Forgot password ]

Guitar Tabs Explorer
Print

Bass tabs :

Something In Your Mouth bass tab by Nickelback

  • Tuning: Drop D
Nickelback
Something In Your Mouth
2008

(0:06)
|--------------------------------------------------------------|
|-*------------------------------------------------------------|
|-*-------------------3--5--------3--5--------3--5-------3--6--|
|--5--4--3--3---0--0-------0-0-0--------0-0-0------0-0-0-------|

                                                               (x3)
|------------------------------------------------------|----------|
|------------------------------------------------------|--pause*--|
|--------3--5--------3--5--------5-(5)-----------------|-------*--|
|--0--0-------0-0-0--------0-0-0-----------7--6--5--5--|----------|

0:51   0:52
|-----|--------------------------------------------------------|
|-----|--------------------------------------------------------|
|-----|--------3--5---------3--5--------5-(5)------------------|
|--0--|--0--0--------0-0-0--------0-0-0------------7--6--5--5--|

0:55
|--------------------------------------------------------------|
|-*------------------------------------------------------------|
|-*-------------------3--5--------3--5--------3--5-------3--6--|
|--5--4--3--3---0--0-------0-0-0--------0-0-0------0-0-0-------|

|------------------------------------------------------|
|---------------------------------------------------*--|
|--------3--5--------3--5--------5-(5)--------------*--|
|--0--0-------0-0-0--------0-0-0-----------7--6--5--5--|

1:10
|---------------------------------------------------------------|
|---------------------------------------------------------------|
|---------------------------------------------------------------|
|--5-5--5--5-5-5--5-5--5--5-5-5--5-5-5--3-3--3--3-3-3-3-3-3--0--|

1:18
|-------------------------------------------------|
|-------------------------------------------------|
|--------3--5--------3--5--------3--5-------3--6--|
|--0--0-------0-0-0--------0-0-0------0-0-0-------|

0:21
|------------------------------------------------------|---------|
|------------------------------------------------------|--pause--|
|--------3--5--------3--5--------5-(5)-----------------|---------|
|--0--0-------0-0-0--------0-0-0-----------7--6--5--5--|---------|

1:31
|--------------------------------------------------------------|-----|
|--------------------------------------------------------------|-----|
|---------------------3--5--------3--5--------3--5-------3--6--|pause|
|--5--4--3--3---0--0-------0-0-0--------0-0-0------0-0-0-------|-----|

1:43
|--------------------------------------------------------------|
|--------------------------------------------------------------|
|---------------------3--5--------3--5--------3--5-------3--6--|
|--5--4--3--3---0--0-------0-0-0--------0-0-0------0-0-0-------|

|------------------------------------------------------|---------|
|------------------------------------------------------|--pause--|
|--------3--5--------3--5--------5-(5)-----------------|---------|
|--0--0-------0-0-0--------0-0-0-----------7--6--5--5--|---------|

1:57   1:58
|-----|--------------------------------------------------------|
|-----|--------------------------------------------------------|
|-----|--------3--5---------3--5--------5-(5)------------------|
|--0--|--0--0--------0-0-0--------0-0-0------------7--6--5--5--|

2:01
|--------------------------------------------------------------|
|-*------------------------------------------------------------|
|-*-------------------3--5--------3--5--------3--5-------3--6--|
|--5--4--3--3---0--0-------0-0-0--------0-0-0------0-0-0-------|

|------------------------------------------------------|
|---------------------------------------------------*--|
|--------3--5--------3--5--------5-(5)--------------*--|
|--0--0-------0-0-0--------0-0-0-----------7--6--5--5--|

2:17
|---------------------------------------------------------------|
|---------------------------------------------------------------|
|---------------------------------------------------------------|
|--5-5--5--5-5-5--5-5--5--5-5-5--5-5-5--3-3--3--3-3-3-3-3-3--0--|

2:24-2:57
|-------------|
|-------------|
|-LONG-PAUSE--|
|-------------|

2:57
|--------------------------------------------------------------|
|--------------------------------------------------------------|
|---------------------3--5--------3--5--------3--5-------3--6--|
|--5--4--3--3---0--0-------0-0-0--------0-0-0------0-0-0-------|

3:01
|------------------------------------------|
|------------------------------------------|
|--------3--5--------3--5---------------5--|
|--0--0-------0-0-0--------0-0-0--0-0-0----|

3:05
|--------------------------------------------------------------|
|-*------------------------------------------------------------|
|-*-------------------3--5--------3--5--------3--5-------3--6--|
|--5--4--3--3---0--0-------0-0-0--------0-0-0------0-0-0-------|

                                                    (x3)
|------------------------------------------------------|
|---------------------------------------------------*--|
|--------3--5--------3--5--------5-(5)--------------*--|
|--0--0-------0-0-0--------0-0-0-----------7--6--5--5--|

3:27
|---------------------------------------------------------------|
|---------------------------------------------------------------|
|---------------------------------------------------------------|
|--5-5--5--5-5-5--5-5--5--5-5-5--5-5-5--3-3--3--3-3-3-3-3-3--0--|

3:34
|-----|
|-----|
|-----|
|--0--|

Other versions of Something In Your Mouth

- Something in Your Mouth-(Ver. 2)Bass tabs

Comments

Nickelback bass tabs for Something in your mouth