Log in

One click and you are in

Login with Facebook Login with Google

Why sign up and log in

Guitar Tabs Explorer
Måneskin bass tabs for Bury a friend

Bass tabs

🎸 Intro:

G|-----------------------------------------------------------------------------------------------------------|
D|-----------------------------------------------------------------------------------------------------------|
A|-----------------------------------------------------------------------------------------------------------|
E|-3-3---3-3---3-3-3-3-3-3-3-3-3-3--3-3----3-3---3-3-3-3-3-3-3-3-3-3-3-3-------------------------------------|

🎸 Verse 1:

G|-----------------------------------------------------------------------------------------------------------|
D|-1-1-------1-1--------1-1----------------------------------------------------------------------------------|
A|------3----------3-----------3-----------------------------------------------------------------------------|
E|-----------------------------------3-3-3-3-3-3-3-3---------------------------------------------------------|


🎸 Chorus:

G|---------------------------------------|
D|-----------------6-----5---------------|
A|-------------6-6---5-5-----------------| Repeat This Section 4 Times But Without The Slide From 15
E|-15\-3-3-3-3---------------------------|

G|-----------------------------------------------------------------------------------------------------------|
D|-----------------------------------------------------------------------------------------------------------|
A|--------------3-3-3-3-3-3--5-5-5-5-5-5----------------------------3-3-3-3-3-3--5-5-5-5-5-5-----------------|
E|-3-3-3-3-3-3-----------------------------3-3-3-3-3-3-3-3-3-3-3-3----------------------------3--------------|


🎸 Verse 2:

G|-----------------------------------------------------------------------------------------------------------|
D|-----------------------------------------------------------------------------------------------------------|
A|-----------------------------------------------------------------------------------------------------------|
E|-15\-3-3-3-3-3-3-3-3-3-3-3-3-3-3-3-3-3--3--3--3------------------------------------------------------------|

G|-----------------------------------------------------------------------------------------------------------|
D|-1-1-------1-1--------1-1----------------------------------------------------------------------------------|
A|------3----------3-----------3-----------------------------------------------------------------------------|
E|-----------------------------------3-3-3-3-3-3-3-3-3-3-3-3-3-3---------------------------------------------|

🎸 Chorus:

G|---------------------------------------|
D|-----------------6-----5---------------|
A|-------------6-6---5-5-----------------| Repeat This Section 4 Times But Without The Slide From 15
E|-15\-3-3-3-3---------------------------|


🎸 Bridge:

G|-----------------------------------------------------------------------------------------------------------|
D|-----------------------------------------------------------------------------------------------------------|
A|-------6-6--5-5----------6-6--5-5----------6-6--5-5----------6-6--5----------------------------------------|
E|-3-3/-------------3-3/--------------3-3/--------------3-3/-------------------------------------------------|

🎸 Outro:

G|-----------------------|
D|-----------------------|
A|-----------------------|
E|-3~---3~---3~---3~-----|

G|-----------------|
D|-----------------| Repeat This Section 8 Times
A|--------6-6-5----|
E|-3-3-3-----------|

G|-----------------------------------------------------------------------------------------------------------|
D|-----------------------------------------------------------------------------------------------------------|
A|-----------------------------------------------------------------------------------------------------------|
E|-3-3-3-3-3-3-3-3-3-3-3-3-3-3-3-3-3-3-3-3-------------------------------------------------------------------|


☠☠☠☠☠☠☠☠☠☠☠☠☠☠☠☠☠☠☠☠☠☠☠☠☠☠☠☠☠☠☠☠☠☠☠☠

| \ Slide down
| / Slide up
| ~ Vibrato

☠☠☠☠☠☠☠☠☠☠☠☠☠☠☠☠☠☠☠☠☠☠☠☠☠☠☠☠☠☠☠☠☠☠☠☠

Almost there ...

Sign in to get your own page with links to favourite songs and more. You are just one click away...

Login with Facebook Login with Google