Guitar Tabs Explorer
Nickelback bass tabs for Feelin way too damn good

Feelin Way Too Damn Good bass tab


Be the first to rate

Feelin Way Too Damn Good bass tab by Nickelback

Bass tabs

Print

Song- Feelin Way Too Damn Good

Intro - REST
G--------------------------------------------|
D--------------------------------------------|
A--------------------------------------------|
E--------------------------------------------|
B---—----------------------------------------|

Verse
G--------------------------------------------|
D--------------------------------------------|
A------2-1------2-1--------------------------|
E--------------------------------------------|
B-3—1-------3-1------------------------------|

Bridge
G--------------------------------------------|
D-3-5----------------------------------------|
A--------------------------------------------|
E-----3-3--------1-3-------------------------|
B----------------------3-----------3/15\3----|

Verse
G--------------------------------------------|
D--------------------------------------------|
A------2-1------2-1--------------------------|
E--------------------------------------------|
B-3—1-------3-1------------------------------|

Bridge
G--------------------------------------------|
D-3-5----------------------------------------|
A--------------------------------------------|
E-----3-3--------1-3-------------------------|
B----------------------3-3-3-3-3-3-3-3-------|

Chorus
G-------------------------------------------------|
D-------------------------------------------------|
A-1-1-1-1-----------------------------------------|
E---------1-1-1-1----------33-3-3-1-1-1-1-3-3-3-3-|
B-----------------1-1-1-11------------------------|

G--------------------------------------------------|
D-5-3----------------------------------------------|
A-----5-3-1------1-1-1-1---------------------------|
E-----------3-1----------1-1-1-1----------33333333-|
B--------------------------------1-1-1-11----------|

G--------------------------------------------|
D--------------------------------------------|
A--------------------------------------------|
E-1-1-1-1-3-3-3-3----------------------------|
B---—----------------------------------------|

Link
G--------------------------------------------|
D--------------------------------------------|
A-----------------2-2-2-2-1-1-1-1------------| X2
E--------------------------------------------|
B-3-3—3-3-1-1-1-1----------------------------|

Verse
G--------------------------------------------|
D--------------------------------------------|
A------2-1------2-1--------------------------|
E--------------------------------------------|
B-3—1-------3-1------------------------------|

Bridge
G--------------------------------------------|
D-3-5----------------------------------------|
A--------------------------------------------|
E-----3-3--------1-3-------------------------|
B----------------------3-3-3-3-3-3-3-3-------|

Chorus
G-------------------------------------------------|
D-------------------------------------------------|
A-1-1-1-1-----------------------------------------|
E---------1-1-1-1----------33-3-3-1-1-1-1-3-3-3-3-|
B-----------------1-1-1-11------------------------|

G--------------------------------------------------|
D-5-3----------------------------------------------|
A-----5-3-1------1-1-1-1---------------------------|
E-----------3-1----------1-1-1-1----------33333333-|
B--------------------------------1-1-1-11----------|

G--------------------------------------------|
D--------------------------------------------|
A--------------------------------------------|
E-1-1-1-1-3-3-3-3----------------------------|
B---—----------------------------------------|

Link
G--------------------------------------------|
D--------------------------------------------|
A-----------------2-2-2-2-1-1-1-1------------| X3
E--------------------------------------------|
B-3-3—3-3-1-1-1-1----------------------------|

G--------------------------------------------|
D--------------------------------------------|
A-----------------2-2-2-2-1~~~~--------------| X1
E--------------------------------------------|
B-3-3—3-3-1-1-1-1----------------------------|

No Bass

Verse
G--------------------------------------------|
D--------------------------------------------|
A------2-1------2-1--------------------------|
E--------------------------------------------|
B-3—1-------3-1------------------------------|

Bridge
G--------------------------------------------|
D-3-5----------------------------------------|
A--------------------------------------------|
E-----3-3--------1-3-------------------------|
B----------------------3-3-3-3-3-3-3-3-------|

Chorus
G-------------------------------------------------|
D-------------------------------------------------|
A-1-1-1-1-----------------------------------------|
E---------1-1-1-1----------33-3-3-1-1-1-1-3-3-3-3-|
B-----------------1-1-1-11------------------------|

G--------------------------------------------------|
D-5-3----------------------------------------------|
A-----5-3-1------1-1-1-1---------------------------|
E-----------3-1----------1-1-1-1----------33333333-|
B--------------------------------1-1-1-11----------|

G--------------------------------------------|
D--------------------------------------------|
A--------------------------------------------|
E-1-1-1-1-3-3-3-3----------------------------|
B---—----------------------------------------|

Link
G--------------------------------------------|
D--------------------------------------------|
A-----------------2-2-2-2-1-1-1-1------------| X2
E--------------------------------------------|
B-3-3—3-3-1-1-1-1----------------------------|

G---------------------------------------------|
D---------------------------------------------|
A-----------------2~~~~--1~~~~----------------| X1
E---------------------------------------------|

Comment this song and these bass tabs

Do you have corrections, comments on the bass tabs, thoughts about the song or a message to the author? Write them below.