Log in

One click and you are in

Login with Facebook Login with Google

Why sign up and log in

Guitar Tabs Explorer
Joji guitar tabs for Slow dancing in the dark

Guitar tabs

  • Capo on 3rd
Tuning: Standard (E A D G B E)

Difficulty: Intermediate


Chords:

  A chord diagramCmaj7Cmaj7 A chord diagramFmaj7Fmaj7
e|--0-----0---|
B|--0-----2---|
G|--0-----3---|
D|--2-----4---|
A|--3---------|
E|------------|


Intro:

   A chord diagramC majorC                               A chord diagramA minorAm
e|--------0-3-7-7----------------|--------0-3-7-7----------------|
B|------1---------8-5-1----------|------1---------8-5-1----------|
G|----0-----------------0--------|----2-----------------2--------|
D|--2---------------------2---2-2|--2---------------------2---2-2|
A|3-------------------------3----|0-------------------------0----|
E|-------------------------------|-------------------------------|

   A chord diagramDmDm                              A chord diagramE minor 7Em7             A chord diagramE7E7
e|--------0-0-0------------------|-------------------------------|
B|------1------------------------|--------3-3---------------3----|
G|--2-2-----------------2-2------|----0-4-----4-0---------1------|
D|0-------------0-0-3-3-----3-3-0|--2-------------------2--------|
A|-------------------------------|--------------------2----------|
E|-------------------------------|0---------------0-4------------|



Verse:

   A chord diagramC majorC                               A chord diagramA minorAm
e|--------0-3-7-7----------------|--------0-3-7-7----------------|
B|------1---------8-5-1----------|------1---------8-5-1----------|
G|----0-----------------0--------|----2-----------------2--------|
D|--2---------------------2---2-2|--2---------------------2---0-2|
A|3-------------------------3----|0-------------------------0----|
E|-------------------------------|-------------------------------|

   A chord diagramDmDm                              A chord diagramE minor 7Em7             A chord diagramE7E7
e|--------0-0-0------------------|-------------------------------|
B|------1------------------------|--------3-3---------------3----|
G|--2-2-----------------2-2------|----0-4-----4-0---------1------|
D|0-------------0-0-3-3-----3-3-0|--2-------------------2--------|
A|-------------------------------|--------------------2----------|
E|-------------------------------|0---------------0-4------------|



Pre-chorus:

   A chord diagramC majorC                               A chord diagramA minorAm
e|--------0-3-7-7----------------|--------0-3-7-7----------------|
B|------1---------8-5-1----------|------1---------8-5-1----------|
G|----0-----------------0--------|----2-----------------2--------|
D|--2---------------------2---2-2|--2---------------------2---0-2|
A|3-------------------------3----|0-------------------------0----|
E|-------------------------------|-------------------------------|

   A chord diagramDmDm                              A chord diagramE minor 7Em7             A chord diagramE7E7
e|--------0-0-0------------------|-------------------------------|
B|------1------------------------|--------3-3---------------3----|
G|--2-2-----------------2-2------|----0-4-----4-0---------1------|
D|0-------------0-0-3-3-----3-3-0|--2-------------------2--------|
A|-------------------------------|--------------------2----------|
E|-------------------------------|0---------------0-4------------|



Chorus:

A chord diagramCmaj7Cmaj7 A chord diagramFmaj7Fmaj7 A chord diagramCmaj7Cmaj7 A chord diagramFmaj7Fmaj7 | A chord diagramCmaj7Cmaj7 A chord diagramFmaj7Fmaj7 A chord diagramCmaj7Cmaj7 A chord diagramFmaj7Fmaj7



Verse:

   A chord diagramC majorC                               A chord diagramA minorAm
e|--------0-3-7-7----------------|--------0-3-7-7----------------|
B|------1---------8-5-1----------|------1---------8-5-1----------|
G|----0-----------------0--------|----2-----------------2--------|
D|--2---------------------2---2-2|--2---------------------2---0-2|
A|3-------------------------3----|0-------------------------0----|
E|-------------------------------|-------------------------------|

   A chord diagramDmDm                              A chord diagramE minor 7Em7             A chord diagramE7E7
e|--------0-0-0------------------|-------------------------------|
B|------1------------------------|--------3-3---------------3----|
G|--2-2-----------------2-2------|----0-4-----4-0---------1------|
D|0-------------0-0-3-3-----3-3-0|--2-------------------2--------|
A|-------------------------------|--------------------2----------|
E|-------------------------------|0---------------0-4------------|



Bridge:

   A chord diagramA majorA                               A chord diagramA minorAm
e|--------0-5---0----------------|--------0-3-3-0----------------|
B|------2---------2-------------2|------2---------2-------------2|
G|----2-------------2---------2--|----0-------------0---------0--|
D|--2-----------------2-----2----|--2-----------------2-----2----|
A|0---------------------3-0------|0---------------------0--------|
E|-------------------------------|-------------------------------|

   A chord diagramDmDm                              A chord diagramE minorEm
e|------1-5-5-1-------------1-5-5|-------------------------------|
B|----3---------3---------3------|--------0-0--------------------|
G|--2---------------2---2--------|------0-----0------------------|
D|0---------------0---0----------|----2----------2---------------|
A|-------------------------------|--2----------------------------|
E|-------------------------------|0------------------------------|



Chorus:

A chord diagramCmaj7Cmaj7 A chord diagramFmaj7Fmaj7 A chord diagramCmaj7Cmaj7 A chord diagramFmaj7Fmaj7 | A chord diagramCmaj7Cmaj7 A chord diagramFmaj7Fmaj7 A chord diagramCmaj7Cmaj7 A chord diagramFmaj7Fmaj7


Outro:

A chord diagramCmaj7Cmaj7 A chord diagramFmaj7Fmaj7 A chord diagramCmaj7Cmaj7 A chord diagramFmaj7Fmaj7

Other versions of Slow Dancing In The Dark

Slow Dancing in The DarkChords
Slow Dancing in The Dark (Ver. 2)Chords
Slow Dancing in The Dark AcousticChords
Slow Dancing in The Dark UkuleleChords
Slow Dancing in The Dark AcousticTabs

↓ Add and view comments below ↓

What do you think about this song and these tabs?

Add your comments, questions, rant or a thumbs up below.

Almost there ...

Sign in to get your own page with links to favourite songs and more. You are just one click away...

Login with Facebook Login with Google