Guitar Tabs Explorer
Nickelback guitar tabs for Falls back on

Falls Back On tab


Be the first to rate

Jamplay guitar lessons

Falls Back On tab by Nickelback

Guitar tabs

Print

but this is my first tab, so go easy on me.

Intro
e|-------------------------------------------------------------------------|
B|-------------------------------------------------------------------------|
G|--6-7\6-6-7\6-4-4-6-7\6-6-7\6-9-9-6-7\6-6-7\6-4-4-6-7\6-6-7\6-6----------|
D|--6-7\6-6-7\6-4-4-6-7\6-6-7\6-9-9-6-7\6-6-7\6-4-4-6-7\6-6-7\6-6----------|
A|--4-5\4-4-5\4-2-2-4-5\4-4-5\4-7-7-4-5\4-4-5\4-2-2-4-5\4-4-5\4-4----------|
D|-------------------------------------------------------------------------|

Verse:
e|-------------------------------------------------------------------------|
B|-------------------------------------------------------------------------|
G|-5-5-5-5-5-5-5-5-7-7-7-7-7-7-7-7---------------------5-5-----------------|
D|-5-5-5-5-5-5-5-5-7-7-7-7-7-7-7-7-5-5-5h7-5-5h7-5-5h7-5-5-5-5h7-5-5h7-5---|
A|-3-3-3-3-3-3-3-3-5-5-5-5-5-5-5-5-5-5-5h7-5-5h7-5-5h7-3-3-5-5h7-5-5h7-5---|
D|---------------------------------5-5-5h7-5-5h7-5-5h7-----5-5h7-5-5h7-5---|

e|-------------------------------------------------------------------------|
B|-------------------------------------------------------------------------|
G|-----5-5-------------------5-5-------------------------------------------|
D|-5h7-5-5-5-5h7-5-5h7-5-5h7-5-5-5-5h7-5-5h7-5-5h7-------------------------|
A|-5h7-3-3-5-5h7-5-5h7-5-5h7-3-3-5-5h7-5-5h7-5-5h7-------------------------|
D|-5h7-----5-5h7-5-5h7-5-5h7-----5-5h7-5-5h7-5-5h7-------------------------|

Chorus
e|-------------------------------------------------------------------------|
B|-------------------------------------------------------------------------|
G|-5-5-5-5-5-5-5-5-7-7-7-7-7-7-7-7-----------------------------------------|
D|-5-5-5-5-5-5-5-5-7-7-7-7-7-7-7-7-7-8p7-7-8p7-5-5-7-8p7-7-8p7-5-5-7-8p7-7-|
A|-3-3-3-3-3-3-3-3-5-5-5-5-5-5-5-5-7-8p7-7-8p7-5-5-7-8p7-7-8p7-5-5-7-8p7-7-|
D|---------------------------------7-8p7-7-8p7-5-5-7-8p7-7-8p7-5-5-7-8p7-7-|

e|-------------------------------------------------------------------------|
B|-------------------------------------------------------------------------|
G|-------------------------------------------------------------------------|
D|-8p7-5-5-7-8p7-7-8p7-7---------------------------------------------------|
A|-8p7-5-5-7-8p7-7-8p7-7---------------------------------------------------|
D|-8p7-5-5-7-8p7-7-8p7-7---------------------------------------------------|

e|-------------------------------------------------------------------------|
B|-------------------------------------------------------------------------|
G|-5-5-5-5-5-5-5-5-7-7-7-7-7-7-7-7-----------------------------------------|
D|-5-5-5-5-5-5-5-5-7-7-7-7-7-7-7-7-7-8p7-7-8p7-5-5-7-8p7-7-8p7-10-10-------|
A|-3-3-3-3-3-3-3-3-5-5-5-5-5-5-5-5-7-8p7-7-8p7-5-5-7-8p7-7-8p7-10-10-------|
D|---------------------------------7-8p7-7-8p7-5-5-7-8p7-7-8p7-10-10-------|

e|-------------------------------------------------------------------------|
B|-------------------------------------------------------------------------|
G|-------------------------------------------------------------------------|
D|-7-9p7-7-8p7-5-5-7-8p7-7-8p7-10-10-7-8p7-7-8p7-5-5-7-8p7-7-8p7-7---------|
A|-7-8p7-7-8p7-5-5-7-8p7-7-8p7-10-10-7-8p7-7-8p7-5-5-7-8p7-7-8p7-7---------|
D|-7-9p7-7-8p7-5-5-7-8p7-7-8p7-10-10-7-8p7-7-8p7-5-5-7-8p7-7-8p7-7---------|

Verse
e|-------------------------------------------------------------------------|
B|-------------------------------------------------------------------------|
G|-5-5-5-5-5-5-5-5-7-7-7-7-7-7-7-7---------------------5-5-----------------|
D|-5-5-5-5-5-5-5-5-7-7-7-7-7-7-7-7-5-5-5h7-5-5h7-5-5h7-5-5-5-5h7-5-5h7-5---|
A|-3-3-3-3-3-3-3-3-5-5-5-5-5-5-5-5-5-5-5h7-5-5h7-5-5h7-3-3-5-5h7-5-5h7-5---|
D|---------------------------------5-5-5h7-5-5h7-5-5h7-----5-5h7-5-5h7-5---|

e|-------------------------------------------------------------------------|
B|-------------------------------------------------------------------------|
G|-----5-5-------------------5-5-------------------------------------------|
D|-5h7-5-5-5-5h7-5-5h7-5-5h7-5-5-5-5h7-5-5h7-5-5h7-------------------------|
A|-5h7-3-3-5-5h7-5-5h7-5-5h7-3-3-5-5h7-5-5h7-5-5h7-------------------------|
D|-5h7-----5-5h7-5-5h7-5-5h7-----5-5h7-5-5h7-5-5h7-------------------------|

Chorus
e|-------------------------------------------------------------------------|
B|-------------------------------------------------------------------------|
G|-5-5-5-5-5-5-5-5-7-7-7-7-7-7-7-7-----------------------------------------|
D|-5-5-5-5-5-5-5-5-7-7-7-7-7-7-7-7-7-8p7-7-8p7-5-5-7-8p7-7-8p7-5-5-7-8p7-7-|
A|-3-3-3-3-3-3-3-3-5-5-5-5-5-5-5-5-7-8p7-7-8p7-5-5-7-8p7-7-8p7-5-5-7-8p7-7-|
D|---------------------------------7-8p7-7-8p7-5-5-7-8p7-7-8p7-5-5-7-8p7-7-|

e|-------------------------------------------------------------------------|
B|-------------------------------------------------------------------------|
G|-------------------------------------------------------------------------|
D|-8p7-5-5-7-8p7-7-8p7-7---------------------------------------------------|
A|-8p7-5-5-7-8p7-7-8p7-7---------------------------------------------------|
D|-8p7-5-5-7-8p7-7-8p7-7---------------------------------------------------|

e|-------------------------------------------------------------------------|
B|-------------------------------------------------------------------------|
G|-5-5-5-5-5-5-5-5-7-7-7-7-7-7-7-7-----------------------------------------|
D|-5-5-5-5-5-5-5-5-7-7-7-7-7-7-7-7-7-8p7-7-8p7-5-5-7-8p7-7-8p7-10-10-------|
A|-3-3-3-3-3-3-3-3-5-5-5-5-5-5-5-5-7-8p7-7-8p7-5-5-7-8p7-7-8p7-10-10-------|
D|---------------------------------7-8p7-7-8p7-5-5-7-8p7-7-8p7-10-10-------|

Bridge
e|-------------------------------------------------------------------------|
B|-------------------------------------------------------------------------|
G|-------------------------------------------------------------------------|
D|-8-8-8-8-8-8-8-8-8-8-8-8-8-8-8-8-7-8p7-7-8p7-7---------------------------|
A|-8-8-8-8-8-8-8-8-8-8-8-8-8-8-8-8-7-8p7-7-8p7-7---------------------------|
D|-8-8-8-8-8-8-8-8-8-8-8-8-8-8-8-8-7-8p7-7-8p7-7---------------------------|

e|-------------------------------------------------------------------------|
B|-------------------------------------------------------------------------|
G|-------------------------------------------------------------------------|
D|-8-8-8-8-8-8-8-8-8-8-8-8-8-8-8-8-7-8p7-7-8p7-7---------------------------|
A|-8-8-8-8-8-8-8-8-8-8-8-8-8-8-8-8-7-8p7-7-8p7-7---------------------------|
D|-8-8-8-8-8-8-8-8-8-8-8-8-8-8-8-8-7-8p7-7-8p7-7---------------------------|

e|-------------------------------------------------------------------------|
B|-------------------------------------------------------------------------|
G|-----------------------------------5-5-5-5-5-5-5-5-5-5-5-5-5-5-5-5-------|
D|-8-8-8-8-8-8-8-8-8-8-8-8-8-8-8-8-8-5-5-5-5-5-5-5-5-5-5-5-5-5-5-5-5-------|
A|-8-8-8-8-8-8-8-8-8-8-8-8-8-8-8-8-8-3-3-3-3-3-3-3-3-3-3-3-3-3-3-3-3-------|
D|-8-8-8-8-8-8-8-8-8-8-8-8-8-8-8-8-8---------------------------------------|

guitar fades in and out
e|-------------------------------------------------------------------------|
B|-------------------------------------------------------------------------|
G|-------------------------------------------------------------------------|
D|-7-8p7-7-8p7-5-5-7-8p7-7-8p7-10-10-7-8p7-7-8p7-5-5-7-8p7-7-8p7-10-10-----|
A|-7-8p7-7-8p7-5-5-7-8p7-7-8p7-10-10-7-8p7-7-8p7-5-5-7-8p7-7-8p7-10-10-----|
D|-7-8p7-7-8p7-5-5-7-8p7-7-8p7-10-10-7-8p7-7-8p7-5-5-7-8p7-7-8p7-10-10-----|


bass and drums play alone


Verse
e|-------------------------------------------------------------------------|
B|-------------------------------------------------------------------------|
G|-5-5-5-5-5-5-5-5-7-7-7-7-7-7-7-7---------------------5-5-----------------|
D|-5-5-5-5-5-5-5-5-7-7-7-7-7-7-7-7-5-5-5h7-5-5h7-5-5h7-5-5-5-5h7-5-5h7-5---|
A|-3-3-3-3-3-3-3-3-5-5-5-5-5-5-5-5-5-5-5h7-5-5h7-5-5h7-3-3-5-5h7-5-5h7-5---|
D|---------------------------------5-5-5h7-5-5h7-5-5h7-----5-5h7-5-5h7-5---|

e|-------------------------------------------------------------------------|
B|-------------------------------------------------------------------------|
G|-----5-5-------------------5-5-------------------------------------------|
D|-5h7-5-5-5-5h7-5-5h7-5-5h7-5-5-5-5h7-5-5h7-5-5h7-------------------------|
A|-5h7-3-3-5-5h7-5-5h7-5-5h7-3-3-5-5h7-5-5h7-5-5h7-------------------------|
D|-5h7-----5-5h7-5-5h7-5-5h7-----5-5h7-5-5h7-5-5h7-------------------------|

Chorus x2
e|-------------------------------------------------------------------------|
B|-------------------------------------------------------------------------|
G|-5-5-5-5-5-5-5-5-7-7-7-7-7-7-7-7-----------------------------------------|
D|-5-5-5-5-5-5-5-5-7-7-7-7-7-7-7-7-7-8p7-7-8p7-5-5-7-8p7-7-8p7-5-5-7-8p7-7-|
A|-3-3-3-3-3-3-3-3-5-5-5-5-5-5-5-5-7-8p7-7-8p7-5-5-7-8p7-7-8p7-5-5-7-8p7-7-|
D|---------------------------------7-8p7-7-8p7-5-5-7-8p7-7-8p7-5-5-7-8p7-7-|

e|-------------------------------------------------------------------------|
B|-------------------------------------------------------------------------|
G|-------------------------------------------------------------------------|
D|-8p7-5-5-7-8p7-7-8p7-7---------------------------------------------------|
A|-8p7-5-5-7-8p7-7-8p7-7---------------------------------------------------|
D|-8p7-5-5-7-8p7-7-8p7-7---------------------------------------------------|

Comment this song and these guitar tabs

Do you have corrections, comments on the guitar tabs, thoughts about the song or a message to the author? Write them below.