Guitar Tabs Explorer
Rammstein bass tabs for Amour

Amour bass tab


Be the first to rate

Amour bass tab by Rammstein

Bass tabs

Print

CHORUS (1:00 min):
F|-------------------------------------------------------------------------|
C|-------------------------------------------------------------------------|
G|5~-----5-1~-----1-5~-----5-1~-----1-0~-----0-----------0~-----0-1~-----1-|
C|---------------------------------------------5~------5-------------------|

VERSE: (4th and 8th time don't play the open C)
F|-------------------------|
C|-------------------------|
G|---5~--------3~----------|x8
C|-------------------0~----|

PRE-CHORUS
F|-------------------------|
C|-------------------------|
G|---5~--------------------|
C|-------------------------|

CHORUS:
F|-------------------------------------------------------------------------|
C|-------------------------------------------------------------------------|
G|5~-----5-1~-----1-5~-----5-1~-----1-0~-----0-----------0~-----0-1~-----1-|
C|---------------------------------------------5~------5-------------------|

F|-------------------------------------------------------------------------|
C|-------------------------------------------------------------------------|
G|5~-----5-1~-----1-0~-----0-----------------------------0~-----0-1~-----1-|
C|---------------------------5~-----5-3~-----3-5~------5-------------------|

VERSE (Bass Tacet until 3:00 min)
F|-------------------------|
C|-------------------------|
G|---5~--------3~----------|x4
C|-------------------0~----|

PRE-CHORUS
F|-------------------------|
C|-------------------------|
G|---5~--------------------|
C|-------------------------|

CHORUS (Twice):
F|-------------------------------------------------------------------------|
C|-------------------------------------------------------------------------|
G|5~-----5-1~-----1-0~-----0-----------------------------0~-----0-1~-----1-|
C|---------------------------5~-----5-3~-----3-5~------5-------------------|

SOLO
F|-------------------------------------------------------------------------|
C|-------------------------------------------------------------------------|
G|5~-----5-1~-----1-0~-----0-----------------------------0~-----0-1~-----1-|
C|---------------------------5~-----5-3~-----3-5~------5-------------------|

CHORUS
F|-------------------------------------------------------------------------|
C|-------------------------------------------------------------------------|
G|5~-----5-1~-----1-0~-----0-----------------------------0~-----0-1~-----1-|
C|---------------------------5~-----5-3~-----3-5~------5-------------------|

OUTRO (Four times)
F|-----------------------------------|
C|-----------------------------------|
G|-----------------------------------|

Comment this song and these bass tabs

Do you have corrections, comments on the bass tabs, thoughts about the song or a message to the author? Write them below.