Guitar Tabs Explorer
Nickelback guitar tabs for Edge of a revolution

Edge Of A Revolution tab


Be the first to rate

Edge Of A Revolution tab by Nickelback

Guitar tabs

Print
Palm mute top two strings.
m mute
h hammer on


Tuning (eb A chord diagramAA D chord diagramDD G chord diagramGG B chord diagramBB E chord diagramEE), Down ~ 10%
Live Standard Tuning, Down ~ 10%
Key: (D chord diagramDD + C# chord diagramC#C#)


----|----------------------------|
----|----------------------------|
----|----------------------------|
----|----------------------------|
----|----------0-0-0-0--0-0-0-0)-|
----|(6-6-6-6--------------------|


  Intro



----|---------------------------------------------------------------|
----|----------------------------------------------------5-5--------|
----|----------------------------------------------------x-x-x-x-7--|
----|-----------------7-7-7-7-5-5-7----------------------7-7-x-x-7--|
----|-------------7---7-7-7-7-5-5-7---------------7-----------------|
----|-6-6-6---6---6-------------------6-6-6---6---6--9-9------------|



----|------------------------------------------------------------------|
----|------------------------------------------------------------------|
----|------------------------------------------------------------------|
----|-----------------7-7-7-7-5-5-7-------------------7----------------|
----|-------------7---7-7-7-7-5-5-7-------------------7----------------|
----|-6-6-6---6---6-------------------9-9-9-9-9-9-9-9---(6-6-6-6-6-6-6)|


                                             m



----|------------------------------------------------------------------|--|
----|------------------------------------------------------------------|--|
----|-----------------------------7--------5---------------------------|--|
----|---------------------------7--------5------------------7-7---7-7--|--|
----|(7)--------------------7-7------7-7----(7)-------------7-7---7-7--|--|
----|(6)--------------------6-6------6-6----(6)------------------------|--|


  Verse




----|-------------------------------------------------------------------|
----|-------------------------------------------------------------------|
----|-------------------------------------------17----17------19----19--|
----|-17h19--19--19--19-19---17-17---17-17---19----19------19----19-----|
----|-------------------------------------------------------------------|
----|-------------------------------------------------------------------|


  Prechorus

----|----------------------|
----|----------------------|
----|-19-------------------|
----|----------------------|
----|----------------------|
----|----------------------|





----|------------------------------------------------------------|
----|------------------------------------------------------------|
----|-------------x-x---------------x-x-------x-x-x-x------------|
----|------7--7---x-x-------5/7-7---x-x-------x-x-x-x-------7----|
----|-10---7--7--------10---5/7-7-------5--5----------5--5--7----|
----|-9----------------9----------------6--6----------6--6-------|


  Chorus





----|------------------|--|
----|------------------|--|
----|-----x-7-7p5------|--|
----|-5h7-x---5---5p7--|--|
----|-0-----------0----|--|
----|------------------|--|


  Interlude



----|--------------------------------------------------------------|
----|--------------------------------------------------------------|
----|------------------x-7-7p5-------------------------------------|
----|--------------5h7-x---5---5h7---------------5h7---------------|
----|-----------7--0-----------0--------------7--0--------5p3------|
----|-6-6-6--6--6-------------------6-6-6--6--6------6-6------6p4--|




----|-------------------------------------------------------|
----|-------------------------------------------------------|
----|------------------x-7-7p5------x-----------------------|
----|--------------5h7-x---5---5p7--x-----------------------|
----|-----------7--0-----------0------3---3---5----5p3------|

Other versions of Edge Of A Revolution

- Edge of a revolutionChords

Comment this song and these guitar tabs

Do you have corrections, comments on the guitar tabs, thoughts about the song or a message to the author? Write them below.