Guitar Tabs Explorer
Nachtgeschrei tabs for Reise zu den seen

Reise Zu Den Seen tab by Nachtgeschrei

Nachtgeschrei tabs for Reise zu den seen

Tabs

Album: Hoffnungsschimmer

Intro:

e||---------------------|-------3~------------|
H||-----1---------1-----|------------1p0-1p0--|
A chord diagramG+G||-------0---------0---|---------------------|   x8 (Harmonica enters at 4)
A chord diagramD MajorD||---2---------3-------|---------------------|
A chord diagramA augmentedA||-0---------3---------|---2-----------------|
A chord diagramE MajorE||---------------------|-3---3----3----------|
Verse:

e||---------------------|-------3~------------|
H||-----1---------1-----|------------1p0-1p0--|
A chord diagramG+G||-------0---------0---|---------------------|   x7
A chord diagramD MajorD||---2---------3-------|---------------------|
A chord diagramA augmentedA||-0---------3---------|---2-----------------|
A chord diagramE MajorE||---------------------|-3---3----3----------|

e||---------------------|---------------------|
H||-----1---------1-----|---------------------|
A chord diagramG+G||-------0---------0---|------0----0-----0---|
A chord diagramD MajorD||---2---------3-------|------0----0-----0---|
A chord diagramA augmentedA||-0---------3---------|---2-----2----2----2-|
A chord diagramE MajorE||---------------------|-3-------------------|


Chorus:

e||-------2---------|-------2---------|-------2---------|-----2------------|
H||-----3---3---3---|-----3---3---3---|-----3---3---3---|-------3----------|
A chord diagramG+G||---2-------2---2-|---2-------2---2-|---2-------2---2-|---2--------------|  x3
A chord diagramD MajorD||-0---------------|-----------------|-----------------|------------------|
A chord diagramA augmentedA||-----------------|-0---------------|-2---------------|-0--------0-2-4-0-|
A chord diagramE MajorE||-----------------|-----------------|-----------------|------------------|

Preverse:

e||---------------------|-------3~------------|
H||-----1---------1-----|------------1p0-1p0--|
A chord diagramG+G||-------0---------0---|---------------------|   x4 (with Harmonica)
A chord diagramD MajorD||---2---------3-------|---------------------|
A chord diagramA augmentedA||-0---------3---------|---2-----------------|
A chord diagramE MajorE||---------------------|-3---3----3----------|
Verse:

e||---------------------|-------3~------------|
H||-----1---------1-----|------------1p0-1p0--|
A chord diagramG+G||-------0---------0---|---------------------|   x7
A chord diagramD MajorD||---2---------3-------|---------------------|
A chord diagramA augmentedA||-0---------3---------|---2-----------------|
A chord diagramE MajorE||---------------------|-3---3----3----------|

e||---------------------|---------------------|
H||-----1---------1-----|---------------------|
A chord diagramG+G||-------0---------0---|------0----0-----0---|
A chord diagramD MajorD||---2---------3-------|------0----0-----0---|
A chord diagramA augmentedA||-0---------3---------|---2-----2----2----2-|
A chord diagramE MajorE||---------------------|-3-------------------|


Chorus:

e||-------2---------|-------2---------|-------2---------|-----2------------|
H||-----3---3---3---|-----3---3---3---|-----3---3---3---|-------3----------|
A chord diagramG+G||---2-------2---2-|---2-------2---2-|---2-------2---2-|---2--------------|  x3
A chord diagramD MajorD||-0---------------|-----------------|-----------------|------------------|
A chord diagramA augmentedA||-----------------|-0---------------|-2---------------|-0--------0-2-4-0-|
A chord diagramE MajorE||-----------------|-----------------|-----------------|------------------|


Bridge:

e||------------------|-----------------|
H||------------------|-----------------|
A chord diagramG+G||-------0------0-2-|---2-0------0~---|  x4
A chord diagramD MajorD||---0-2------2-----|-0-----2----2~---|
A chord diagramA augmentedA||-0--------3-------|---------3~------|
A chord diagramE MajorE||------------------|-----------------|

e||-----0--------0---|-----0-------0---|
H||---1-1-1----1-1-1-|---1-1-1---1-1---|
A chord diagramG+G||-2--------0-------|-----------------|  x7
A chord diagramD MajorD||------------------|-3-------2-----2-|
A chord diagramA augmentedA||------------------|-----------------|
A chord diagramE MajorE||------------------|-----------------|

e||-----0--------0---|-----0-----------|-0--------|
H||---1-1-1----1-1-1-|---1-1-1---1p0h1-|---0h1----|
A chord diagramG+G||-2--------0-------|-----------------|----------|
A chord diagramD MajorD||------------------|-3-------2-------|-------2~-|
A chord diagramA augmentedA||------------------|-----------------|----------|
A chord diagramE MajorE||------------------|-----------------|----------|

e||-8~----8--7~---7--|-5~-------5~------|-8~---8--12~--------|---------------------|
H||------------------|------------------|-----------------12-|-12~----12h13p12-----|
A chord diagramG+G||----9--------7----|----4h5p4-----4h5-|----9---------------|-----------------12~-|  x2
A chord diagramD MajorD||-7~-------5~------|-3~---------------|-7~-----------12----|-12~-12--------------|
A chord diagramA augmentedA||------------------|------------------|---------10~--------|---------------------|
A chord diagramE MajorE||------------------|------------------|--------------------|---------------------|

e||--------------|------------------------|----------12~-13-12~-|
H||-12~-12-12-13-|-13-10-10~-------10-----|-10-13-10------------|
A chord diagramG+G||--------------|-----------10-------10~-|----------12~--------|
A chord diagramD MajorD||-12~----12----|-14----10~----10--------|---------------------|
A chord diagramA augmentedA||--------------|------------------------|---------------------|
A chord diagramE MajorE||--------------|------------------------|---------------------|


Chorus (distorted):

e||-----------------|-----------------|-----------------|-----------------|
H||-----------------|-----------------|-----------------|-----------------|
A chord diagramG+G||-7-7-7-7-7-7-7-7-|-7-7-7-7-7-7-7-7-|-4-4-4-4-4-4-4-4-|-2-2-2-2---------|  x7
A chord diagramD MajorD||-7-7-7-7-7-7-7-7-|-7-7-7-7-7-7-7-7-|-4-4-4-4-4-4-4-4-|-2-2-2-2-5-5-5-5-|
A chord diagramA augmentedA||-5-5-5-5-5-5-5-5-|-4-4-4-4-4-4-4-4-|-2-2-2-2-2-2-2-2-|-0-0-0-0-5-5-5-5-|
A chord diagramE MajorE||-----------------|-----------------|-----------------|---------3-3-3-3-|


Outro (distorted/clean):

e||---------------|---------------|---------------|-----------------|---------------||
H||---------------|---------------|---------------|-----------------|---------------||
A chord diagramG+G||-7~------------|---------------|---------------|-----------------|---------------||
A chord diagramD MajorD||-7~------------|---------------|---------------|-----------------|---------------||
A chord diagramA augmentedA||-5~------------|---------------|---------------|-----------------|---------------||
A chord diagramE MajorE||---------------|---------------|---------------|-----------------|---------------||
 ||
e||-----2-0~---2~-|-----2-0~---2~-|-----2-0~---2~-|-----2---0-------|-0~------------||
H||----------3----|----------3----|----------3----|-------3---3-2-3-|-3~------------||
A chord diagramG+G||---2-----------|---2-----------|---2-----------|---2-------------|-2~------------||
A chord diagramD MajorD||-0-------------|---------------|---------------|-----------------|-0~------------||
A chord diagramA augmentedA||---------------|-0-------------|-2-------------|-0---------------|---------------||
A chord diagramE MajorE||---------------|---------------|---------------|-----------------|---------------||