Log in

One click and you are in

Login with Facebook Login with Google

Why sign up and log in

Guitar Tabs Explorer
Mötley Crüe bass tabs for Wild side

Bass tabs

wild side
motley crue


intro
d--------------------------------------------
g--------------------------------------------
c--0----------------------------------5-5--5-
f--------------------------------------------

d-----------------------------------------------------------
g-----------------------------------------------------------
c-0-0-0-0-0-0-0-0-0-0-0-0-0-0-0-0----0-0-0-0-0-0-0-0-5-5--5-
f-----------------------------------------------------------

d---------------------------------------------------------------------
g---------------------------------------------------------------------
c--0-0-0-0-0-0-0-0-0-0-0-0-0-0-0-0----0-0-0-0-0-0-0-0-0-0-0-0-0-0-0-0-
f---------------------------------------------------------------------


verse
d---------------------------------------------------------------------
g---------------------------------------------------------------------
c--0-0-0-0-0-0-0-0-0-0-0-0-0-0-0-0----0-0-0-0-0-0-0-0-0-0-0-0-0-0-0-0-
f---------------------------------------------------------------------

d---------------------------------------------------------------------
g---------------------------------------------------------------------
c-------------------------------------0-0-0-0-0-0-0-0-0-0-0-0-0-0-0-0-
f--3-3-3-3-3-3-3-3-3-3-3-3-3-3-3-3------------------------------------

d---------------------------------------------------------------------
g---------------------------------------------------------------------
c--0-0-0-0-0-0-0-0-0-0-0-0-0-0-0-0----0-0-0-0-0-0-0-0-0-0-0-0-0-0-0-0-
f---------------------------------------------------------------------

d---------------------------------------------------------------------
g---------------------------------------------------------------------
c-------------------------------------0-0-0-0-0-0-0-0-0-0-0-0-0-0-0-0-
f--3-3-3-3-3-3-3-3-3-3-3-3-3-3-3-3------------------------------------

chorus
d-----------------------------------------------------------
g-----------------------------------------------------------
c-0-0-0-0-0-0-0-0-0-0-0-0-0-0-0-0----0-0-0-0-0-0-0-0-5-5--5-
f-----------------------------------------------------------

d-----------------------------------------------------------
g-----------------------------------------------------------
c-0-0-0-0-0-0-0-0-0-0-0-0-0-0-0-0----0-0-0-0-0-0-0-0-5-5--5-
f-----------------------------------------------------------

d---------------------------------------------------------------------
g---------------------------------------------------------------------
c--0-0-0-0-0-0-0-0-0-0-0-0-0-0-0-0----0-0-0-0-0-0-0-0-0-0-0-0-0-0-0-0-
f---------------------------------------------------------------------

d---------------------------------------
g---------------------------------------
c--0-0-0-0-0-0-0-0-5-5--5----5-5--5---3-
f---------------------------------------


verse
d---------------------------------------------------------------------
g---------------------------------------------------------------------
c--0-0-0-0-0-0-0-0-0-0-0-0-0-0-0-0----0-0-0-0-0-0-0-0-0-0-0-0-0-0-0-0-
f---------------------------------------------------------------------

d---------------------------------------------------------------------
g---------------------------------------------------------------------
c-------------------------------------0-0-0-0-0-0-0-0-0-0-0-0-0-0-0-0-
f--3-3-3-3-3-3-3-3-3-3-3-3-3-3-3-3------------------------------------

d---------------------------------------------------------------------
g---------------------------------------------------------------------
c--0-0-0-0-0-0-0-0-0-0-0-0-0-0-0-0----0-0-0-0-0-0-0-0-0-0-0-0-0-0-0-0-
f---------------------------------------------------------------------

d---------------------------------------------------------------------
g---------------------------------------------------------------------
c-------------------------------------0-0-0-0-0-0-0-0-0-0-0-0-0-0-0-0-
f--3-3-3-3-3-3-3-3-3-3-3-3-3-3-3-3------------------------------------


chorus
d-----------------------------------------------------------
g-----------------------------------------------------------
c-0-0-0-0-0-0-0-0-0-0-0-0-0-0-0-0----0-0-0-0-0-0-0-0-5-5--5-
f-----------------------------------------------------------

d-----------------------------------------------------------
g-----------------------------------------------------------
c-0-0-0-0-0-0-0-0-0-0-0-0-0-0-0-0----0-0-0-0-0-0-0-0-5-5--5-
f-----------------------------------------------------------

d---------------------------------------------------------------------
g---------------------------------------------------------------------
c--0-0-0-0-0-0-0-0-0-0-0-0-0-0-0-0----0-0-0-0-0-0-0-0-0-0-0-0-0-0-0-0-
f---------------------------------------------------------------------

d---------------------------------------
g---------------------------------------
c--0-0-0-0-0-0-0-0-5-5--5----5-5--5---3-
f---------------------------------------


bridge
d------------------------------------------------------------------------
g------------------------------------------------------------------------
c--0--3--5----0----0--0--5--3----0----0--0--3--0----0----0--0--3--0----0-
f------------------------------------------------------------------------

d------------------------------------------------------------------------
g------------------------------------------------------------------------
c--0--3--5----0----0--0--5--3----0----0--0--3--0----0----0--0--3--0----0-
f------------------------------------------------------------------------

d-------------------------------------
g-------------------------------------
c--0--0--3--5------0--5--3----0--3--0-
f-------------------------------------


chorus
d--------------------------------------------
g--------------------------------------------
c--0----------------------------------5-5--5-
f--------------------------------------------

d-----------------------------------------------------------
g-----------------------------------------------------------
c-0-0-0-0-0-0-0-0-0-0-0-0-0-0-0-0----0-0-0-0-0-0-0-0-5-5--5-
f-----------------------------------------------------------

d---------------------------------------------------------------------
g---------------------------------------------------------------------
c--0-0-0-0-0-0-0-0-0-0-0-0-0-0-0-0----0-0-0-0-0-0-0-0-0-0-0-0-0-0-0-0-
f---------------------------------------------------------------------


bridge
d------------------------------------------------------------------------
g------------------------------------------------------------------------
c--0--3--5----0----0--0--5--3----0----0--0--3--0----0----0--0--3--0----0-
f------------------------------------------------------------------------

d------------------------------------------------------------------------
g------------------------------------------------------------------------
c--0--3--5----0----0--0--5--3----0----0--0--3--0----0----0--0--3--0----0-
f------------------------------------------------------------------------

d-------------------------------------
g-------------------------------------
c--0--0--3--5------0--5--3----0--3--0-
f-------------------------------------


bridge
d------------------------------------------------------------------------
g------------------------------------------------------------------------
c--0--3--5----0----0--0--5--3----0----0--0--3--0----0----0--0--3--0----0-
f------------------------------------------------------------------------

d------------------------------------------------------------------------
g------------------------------------------------------------------------
c--0--3--5----0----0--0--5--3----0----0--0--3--0----0----0--0--3--0----0-
f------------------------------------------------------------------------


outro then fade out
d---------------------------------------------------------------------------
g---------------------------------------------------------------------------
c--0--0--3--5----0----0--0--3--5----0----0--0--3--0----0----0--0--3--0----0-
f---------------------------------------------------------------------------

Other versions of Wild Side

Wild side (Ver. 2)Bass tabs

Almost there ...

Sign in to get your own page with links to favourite songs and more. You are just one click away...

Login with Facebook Login with Google