Search tabs and chords

Search for song, artist or band

Log in

One click and you are in

Login with Facebook Login with Google

Why sign up and log in

Guitar Tabs Explorer
Muse guitar tabs for Propaganda acoustic

Guitar tabs with lyrics

Tuning: D chord diagramDD Tuning (D chord diagramDD G chord diagramGG C chord diagramCC F chord diagramFF A chord diagramAA D chord diagramDD)

Key: Em chord diagramEmEm

Difficulty: Intermediate

Intro:

e|--------------------------------------------------|
B|--------------------------------------------------|
G|--------------------------------------------------|
D|--------------------------------------------------|
A|--7--7--7--7--5--5--5--5--------------------------|
E|--------------------------5--5--5--5--3--3--3--3--|
Verse 1:

e|---------|---------------|--------------|
B|---------|--------8------|--------8-----|
G|--9---9--|----7-9---9-9-7|9----7-----7--|
D|---------|--9------------|--------------|
A|---------|---------------|--------------|
E|---------|---------------|--------------|

 (1/4 bend)
e|----------------|----------|----------------|
B|-7^--7--7-------|----------|--------8-------|
G|----------9-9-7-|--9---9---|----7-9---9-9-7-|
D|----------------|----------|--9-------------|
A|----------------|----------|----------------|
E|----------------|----------|----------------|

e|--------------|---------------|
B|--------8-----|-7^--7--7------|
G|9----7-----7--|----------9-9-7|
D|--------------|---------------|
A|--------------|---------------|
E|--------------|---------------|

Pre-Chorus:

(Guitar 2)

  (Gm chord diagramGmGm)   (F chord diagramFF)   (A chord diagramAA)  (Gm chord diagramGmGm)   (F chord diagramFF)   (A chord diagramAA)  (Single downstrum on final A chord diagramAA)
E|--5--|--3--|--7--|--5--|--3--|--7--|
B|--5--|--3--|--7--|--5--|--3--|--7--|
G|--5--|--4--|--4--|--5--|--4--|--4--|
D|--7--|--5--|--5--|--7--|--5--|--5--|
A|--7--|--5--|--5--|--7--|--3--|--5--|
E|--5--|--3--|--7--|--5--|--3--|--7--|

(Guitar 1)

e|--------|---------------|--------|
B|--------|-------8-7-7---|-7--7---|
G|--9---9-|---7-9-------9-|--------|
D|--------|-9-------------|--------|
A|--------|---------------|--------|
E|--------|---------------|--------|

  (1/4)
e|---------------------|---------------------|
B|--10^-10-8-10-8-10-8-|-10^--10^-10^-10-8-7-|
G|---------------------|---------------------|
D|---------------------|---------------------|
A|---------------------|---------------------|
E|---------------------|---------------------|


Chorus:

e|-------------------------------------------------|
B|-------------------------------------------------|
G|-------------------------------------------------|
D|-------------------------------------------------|
A|--5--7--7--7--7--7--5--7--7--7--8--7--8--7--7--7-|
E|-------------------------------------------------|

e|-------------------------------------------------|
B|-------------------------------------------------|
G|-------------------------------------------------|
D|-------------------------------------------------|
A|--5--7--7--7--7--7--5--7--7--7--8--7--8--7--7--7-|
E|-------------------------------------------------|

e|-------------------------------------------------|
B|-------------------------------------------------|
G|-------------------------------------------------|
D|-------------------------------------------------|
A|--5--7--8--7--8--7--5--7--5--7--8--7--8--7--7----|
E|-------------------------------------------------|

e|--------------------------------------------------|
B|--------------------------------------------------|
G|--------------------------------------------------|
D|--------------------------------------------------|
A|--7--7--7--7--5--5--5--5--------------------------|
E|--------------------------5--5--5--5--3--3--3--3--|

(A chord diagramAA verse, pre-chorus and chorus is repeated, then the solo, then the final chorus, which consists of the 3
chords played on loop multiple times, listen to the song to familiarise how many times it goes round.
A chord diagramAA second lead guitar section is added that I'll work on after the solo, but the guitar 1 isn't present.)


Outro:

e|-------------------------------------------------|-----------------------------------------------------|
B|-------------------------------------------------|-----------------------------------------------------|
G|-------------------------------------------------|-----------------------------------------------------|
D|-------------------------------------------------|-------2--2--------2--2--------2--2---2--2-----------|
A|--7--7--7--7--5--5--5--5-------------------------|-----------------------------------------------------|
E|--------------------------5--5--5--5--3--3--3--3-|-0--0--------0--0--------0--0---------------0--0---0-|

Almost there ...

Sign in to get your own page with links to favourite songs and more. You are just one click away...

Login with Facebook Login with Google