Log in

One click and you are in

Login with Facebook Login with Google

Why sign up and log in

Guitar Tabs Explorer
Gary Moore bass tabs for Still got the blues (Ver. 2)

Still Got The Blues bass tab by Gary Moore (Ver. 2)

Gary Moore bass tabs for Still got the blues (Ver. 2)

Bass tabs

Verse 1
G |-----------------|-----------------|-----------------|-----------------|
D |-----------------|-----------------|-----------------|-----------------|
A |-5---------------|-----------------|-3---------------|-----------------|
E |-----------------|-3---------------|-----------------|-1---------------|
  1 2 3 4 5 6 1 2 3 4 5 6 1 2 3 4 5 6 1 2 3 4 5 6

G |-----------------|-----------------|-----------------|-----------------|
D |-----------------|-2---------------|-----------------|-----------------|
A |-2---------------|-----------------|-----------------|-----------------|
E |-----------------|-----------------|-5---------------|-5-----5---------|
  1 2 3 4 5 6 1 2 3 4 5 6 1 2 3 4 5 6 1 2 3 4 5 6

Verse 2
G |-----------------|-----------------|-----------------|-----------------|
D |-----------------|-5---------------|-----------------|-3---------------|
A |-5---------------|-----------------|-3---------------|-----------------|
E |-----------------|-----------------|-----------------|-----------------|
  1 2 3 4 5 6 1 2 3 4 5 6 1 2 3 4 5 6 1 2 3 4 5 6

G |-----------------|-----------------|-----------------|-----------------|
D |-----------------|-2---------------|-----------------|-----------------|
A |-2---------------|-----------------|-----------------|-3---------------|
E |-----------------|-----------------|-5---------------|-----------------|
  1 2 3 4 5 6 1 2 3 4 5 6 1 2 3 4 5 6 1 2 3 4 5 6

Verse 3
G |-----------------|-----------------|-----------------|-----------------|
D |-----------------|-5---------------|-----------------|-3---------------|
A |-5---------------|-----------------|-3---------------|-----------------|
E |-----------------|-----------------|-----------------|-----------------|
  1 2 3 4 5 6 1 2 3 4 5 6 1 2 3 4 5 6 1 2 3 4 5 6
G |-----------------|-----------------|-----------------|-----------------|
D |-----------------|-2---------------|-----------------|-----------------|
A |-2---------------|-----------------|-----------------|-----------------|
E |-----------------|-----------------|-0--0--0--0--0--0|-0--0--0--0--0--0|
  1 2 3 4 5 6 1 2 3 4 5 6 1 2 3 4 5 6 1 2 3 4 5 6

Chorus
G |-----------------|-----------------|-----------------|-----------------|
D |-----------------|-----------------|-----------------|-----------------|
A |-----------------|-----------------|-----------------|-5---------------|
E |-5---------------|-0---------------|-5---------------|-----------------|
  1 2 3 4 5 6 1 2 3 4 5 6 1 2 3 4 5 6 1 2 3 4 5 6

G |-----------------|-----------------|-----------------|-----------------|
D |-----------------|-----------------|-----------------|-----------------|
A |-----------------|-0---------------|-----------------|-----------------|
E |-1---------------|-----------------|-5---------------|-5---------------|
  1 2 3 4 5 6 1 2 3 4 5 6 1 2 3 4 5 6 1 2 3 4 5 6

Verse 3

Chorus

ⓘ This is the 2nd version of bass guitar tab for 'Still Got The Blues' by Gary Moore, a male hard rock artist from Belfast, Northern Ireland, UK. Gary Moore was born in 1952. He passed away in 2011. Gary Moore was known for his gritty rock/pop music.

Other versions of Still Got The Blues

Still got the bluesBass tabs
Still got the blues (for you)Bass tabs

Almost there ...

Sign in to get your own page with links to favourite songs and more. You are just one click away...

Login with Facebook Login with Google