Search tabs and chords

Search for song, artist or band

Log in

One click and you are in

Login with Facebook Login with Google

Why sign up and log in

Guitar Tabs Explorer
Miel San Marcos guitar tabs for Fiesta

Guitar tabs with lyrics

Tuning: Standard (E chord diagramEE A chord diagramAA D chord diagramDD G chord diagramGG B chord diagramBB E chord diagramEE)

Key: Cm chord diagramCmCm

Difficulty: Intermediate

Intro:
     Cm7 chord diagramCm7Cm7                            Abm7   Bbsus
E|--------------------------------------------------------------|
B|--------------------------------------------------------------|
G|-/8-8-8--8----8-----8-8-8--3h5/7--7-7-5-7--3h5/7--7-7-5-7-----|
D|-----------10---10--------------------------------------------|
A|--------------------------------------------------------------|
E|--------------------------------------------------------------|

  Gsus chord diagramGsusGsus Ab7 chord diagramAb7Ab7 G7 chord diagramG7G7 Ab7 chord diagramAb7Ab7 G7 chord diagramG7G7  G7aum
E|-------------------------|
B|-------------------------|
G|-12--13-12--13-12--12~---|
D|-------------------------|
A|-------------------------|
E|-------------------------|

      Cm7 chord diagramCm7Cm7              Abm7                   Bbsus
E|--------------------------------------------------------------|
B|--------------------------------------------------------------|
G|-/8-8-8--8----8-----8-8-8--^10-8h9p8----8-10--3h5/7--7-7-5-7--|
D|-----------10---10-------------------10-----------------------|
A|--------------------------------------------------------------|
E|--------------------------------------------------------------|

                  Gsus chord diagramGsusGsus Ab7 chord diagramAb7Ab7 G7 chord diagramG7G7 Ab7 chord diagramAb7Ab7 G7 chord diagramG7G7  G7aum
E|-----------------------------------------|
B|-----------------------------------------|
G|-3h5/7--7-7-5-7--12--13-12--13-12--12~---|
D|-----------------------------------------|
A|-----------------------------------------|
E|-----------------------------------------|

Verse 1:
            Cm7 chord diagramCm7Cm7                 Abm7
E|--------------------------------------------------------------|
B|-10----8~--------10----8~-------------------------------------|
G|----10-----10-8-----10-----10-8---10--10-----8~--10--10----8~-|
D|------------------------------------------10------------10----|
A|--------------------------------------------------------------|
E|--------------------------------------------------------------|
  Lo que se canta en el cielo, Cantamos en la tierra



            Bbsus               Gsus chord diagramGsusGsus          G7 chord diagramG7G7 G7aum
E|--------------------------------------------------------------|
B|--------------------------------------------------------------|
G|-------------------------------^10-8h10p8----8-10-------------|
D|-8--8-------8--8--------9--9~-------------10------------------|
A|------10-8-------10-8-----------------------------------------|
E|--------------------------------------------------------------|
  Al que se adora en el cielo, Adoramos en la tierra


Verse 1:

            Cm7 chord diagramCm7Cm7                 Abm7
E|--------------------------------------------------------------|
B|--------------------------------------------------------------|
G|-/10-8~--------/10-8~---------8------------8------------------|
D|--------10--8---------10--8-----10~-----8----10~--------------|
A|------------------------------------10------------------------|
E|--------------------------------------------------------------|
  Lo que se canta en el cielo, Cantamos en la tierra


           Bbsus               Gsus chord diagramGsusGsus            G7 chord diagramG7G7 G7aum
E|--------------------------------------------------------------|
B|-3--4--6--8-9-6-8~--9-6-8~------------------------------------|
G|--------------------------------------------------------------|
D|--------------------------------------------------------------|
A|--------------------------------------------------------------|
E|--------------------------------------------------------------|
  Al que se adora en el cielo, Adoramos en la tierra


Pre-Chorus:


     Ab chord diagramAbAb     G chord diagramGG               Fm chord diagramFmFm       Eb chord diagramEbEb         G chord diagramGG/D chord diagramDD   G chord diagramGG
E|--------------------------------------------------------------|
B|-----9---10/11----------------6-6-6-6---4-4-4-4---8-8-8-8-----|
G|---8-----11/12--10/1210--12---5-5-5-5---3-3-3-3---7-7-7-7-----|
D|-6--------------10/1210--12---3-3-3-3---1-1-1-1---5-5-5-5-----|
A|-------------------------10-----------------------------------|
E|--------------------------------------------------------------|
  Al Santo, Digno, al   Cordero, que vive para siempre Hacemos


Chorus:


   Cm7 chord diagramCm7Cm7                                            Abm7
E|--------------------------------------------------------------|
B|--13--x--x--13--13--x--x--13--13--x--x--13--13--x--x--13------|
G|------x--x----------x--x----------x--x----------x--x----------|
D|--10--x--x--10--10--x--x--10--10--x--x--10--10--x--x--10------|
A|--------------------------------------------------------------|
E|--------------------------------------------------------------|
   Fiesta, hoy hacemos una fiesta





  Bbsus                                Gsus chord diagramGsusGsus Ab7 chord diagramAb7Ab7 G7 chord diagramG7G7 Ab7 chord diagramAb7Ab7 G7 chord diagramG7G7  G7aum
E|--------------------------------------------------------------|
B|--------------------------------------8--x--9-8--x--9-8--x--8-|
G|-8h10p8-7~--8~--10~--13~-----------------x-------x-------x----|
D|--------------------------------------5--x--6-5--x--6-5--x--5-|
A|--------------------------------------------------------------|
E|--------------------------------------------------------------|
  Unidos hoy danzamos con gozo celebramos, oh uh oh uh


    Cm7 chord diagramCm7Cm7                                            Abm7
E|--------------------------------------------------------------|
B|--13--x--x--13--13--x--x--13--13--x--x--13--13--x--x--13------|
G|------x--x----------x--x----------x--x----------x--x----------|
D|--10--x--x--10--10--x--x--10--10--x--x--10--10--x--x--10------|
A|--------------------------------------------------------------|
E|--------------------------------------------------------------|
   Fiesta, hoy hacemos una fiesta


 Bbsus                                    Gsus chord diagramGsusGsus Ab7 chord diagramAb7Ab7 G7 chord diagramG7G7 Ab7 chord diagramAb7Ab7 G7 chord diagramG7G7  G7aum
E|--------------------------------------------------------------|
B|--------------------------------------------------------------|
G|-8h10p8-7~-----8~-----10~-----13~--------12--13-12--13-12--12-|
D|--------------------------------------------------------------|
A|--------------------------------------------------------------|
E|--------------------------------------------------------------|
 En la tierra cantamos juntos gritamos, oh uh oh uh oh


(Después del coro se repite todo una vez más para pasar a un puente musical)

Puente:


E|--------------------------------------------------------------|
B|--------------------------------------------------------------|
G|------------------------------------------8~------------------|
D|-----------------------------10-8----8-7----------------------|
A|--3-3-----6--8----6-6------8-------6----------6--8----6-6-----|
E|------3---------8-----8~----------------------------8-----8~--|

E|--------------------------------------------------------------------------|
B|--------------------------------------------------------------------------|
G|--------------------------------------------------------------------------|
D|--------------------------------8--8--8/10--10~---------------------------|
A|-3-3-3-3-3-6-6-6-6-6-8-8-8-8-8--------------------------------------------|
E|--------------------------------------------------------------------------|

Puente 2:

E|--------------------------------------------------------------|
B|--------------------------------------------------------------|
G|--------------------------------------------------------------|
D|--------------------------------------------------------------|  x3
A|--3-3------6-6--------3-3------6/8--8-8-6---------------------|
E|------3--------6-1--------3---------------8-------------------|
  Hacemos Fiesta,   Hacemos Fiesta


E|-------------------------------------------------------13-----|
B|-------------------------------------------11----13-------13--|
G|-------------------------------10h8--12-10----12----12--------|
D|--------------------------------------------------------------|
A|--3-3------6-6--------3-3-------------------------------------|
E|------3--------6-1--------3-----------------------------------|
  Hacemos Fiesta,  Hacemos Fiesta

E|--------------------------------------------------------------|
B|--13--x--x--13--13--x--x--13--13--x--x--13--13--x--x--13------|
G|------x--x----------x--x----------x--x----------x--x----------|
D|--10--x--x--10--10--x--x--10--10--x--x--10--10--x--x--10------|
A|--------------------------------------------------------------|
E|--------------------------------------------------------------|
  Fiesta, Fiesta, Hacemos Fiesta, fiesta,

E|-------------------------------8--------------------8-8-8-8-8-|
B|------------------5-6-x-x-7-8----x-x-5-6-x-x-x-7-8------------|
G|--------8-10-12-------x-x------7-x-x-----x-x-x------7-7-7-7-7-|
D|--8-8-9-----------2-3-x-x-4-5----x-x-2-3-x-x-x-4-5------------|
A|--------------------------------------------------------------|
E|--------------------------------------------------------------|
  Fiesta, Fiesta, Hacemos Fiesta, fiesta,

Coro:

E|--------------------------------------------------------------|
B|--------------------------------------------------------------|
G|--------------------------------------------------------------|
D|--------------5--4--3-----------------------------------------|
A|--------3--6--------------------------------------------------|
E|--------------------------------------------------------------|
  Fiesta,      hoy hacemos una fiesta



************************************

| h  Hammer-on
| /  Slide up
| ~  Vibrato
| p  Pull-off
| x  Dead note

************************************

Other versions of Fiesta

FiestaChords

Almost there ...

Sign in to get your own page with links to favourite songs and more. You are just one click away...

Login with Facebook Login with Google